  0
SECTION
  2
HEADER
  9
$ACADVER
  1
AC1032
  9
$ACADMAINTVER
 90
      251
  9
$DWGCODEPAGE
  3
ANSI_932
  9
$REQUIREDVERSIONS
160
                 0
  9
$INSBASE
 10
0.0
 20
0.0
 30
0.0
  9
$EXTMIN
 10
1.000000000000000E+20
 20
1.000000000000000E+20
 30
1.000000000000000E+20
  9
$EXTMAX
 10
-1.000000000000000E+20
 20
-1.000000000000000E+20
 30
-1.000000000000000E+20
  9
$LIMMIN
 10
0.0
 20
0.0
  9
$LIMMAX
 10
12.0
 20
9.0
  9
$ORTHOMODE
 70
     0
  9
$REGENMODE
 70
     1
  9
$FILLMODE
 70
     1
  9
$QTEXTMODE
 70
     0
  9
$MIRRTEXT
 70
     0
  9
$LTSCALE
 40
1.0
  9
$ATTMODE
 70
     1
  9
$TEXTSIZE
 40
0.2
  9
$TRACEWID
 40
0.05
  9
$TEXTSTYLE
  7
Standard
  9
$CLAYER
  8
0
  9
$CELTYPE
  6
ByLayer
  9
$CECOLOR
 62
   256
  9
$CELTSCALE
 40
1.0
  9
$DISPSILH
 70
     0
  9
$DIMSCALE
 40
1.0
  9
$DIMASZ
 40
0.18
  9
$DIMEXO
 40
0.0625
  9
$DIMDLI
 40
0.38
  9
$DIMRND
 40
0.0
  9
$DIMDLE
 40
0.0
  9
$DIMEXE
 40
0.18
  9
$DIMTP
 40
0.0
  9
$DIMTM
 40
0.0
  9
$DIMTXT
 40
0.18
  9
$DIMCEN
 40
0.09
  9
$DIMTSZ
 40
0.0
  9
$DIMTOL
 70
     0
  9
$DIMLIM
 70
     0
  9
$DIMTIH
 70
     1
  9
$DIMTOH
 70
     1
  9
$DIMSE1
 70
     0
  9
$DIMSE2
 70
     0
  9
$DIMTAD
 70
     0
  9
$DIMZIN
 70
     0
  9
$DIMBLK
  1

  9
$DIMASO
 70
     1
  9
$DIMSHO
 70
     1
  9
$DIMPOST
  1

  9
$DIMAPOST
  1

  9
$DIMALT
 70
     0
  9
$DIMALTD
 70
     2
  9
$DIMALTF
 40
25.4
  9
$DIMLFAC
 40
1.0
  9
$DIMTOFL
 70
     0
  9
$DIMTVP
 40
0.0
  9
$DIMTIX
 70
     0
  9
$DIMSOXD
 70
     0
  9
$DIMSAH
 70
     0
  9
$DIMBLK1
  1

  9
$DIMBLK2
  1

  9
$DIMSTYLE
  2
Standard
  9
$DIMCLRD
 70
     0
  9
$DIMCLRE
 70
     0
  9
$DIMCLRT
 70
     0
  9
$DIMTFAC
 40
1.0
  9
$DIMGAP
 40
0.09
  9
$DIMJUST
 70
     0
  9
$DIMSD1
 70
     0
  9
$DIMSD2
 70
     0
  9
$DIMTOLJ
 70
     1
  9
$DIMTZIN
 70
     0
  9
$DIMALTZ
 70
     0
  9
$DIMALTTZ
 70
     0
  9
$DIMUPT
 70
     0
  9
$DIMDEC
 70
     4
  9
$DIMTDEC
 70
     4
  9
$DIMALTU
 70
     2
  9
$DIMALTTD
 70
     2
  9
$DIMTXSTY
  7
Standard
  9
$DIMAUNIT
 70
     0
  9
$DIMADEC
 70
     0
  9
$DIMALTRND
 40
0.0
  9
$DIMAZIN
 70
     0
  9
$DIMDSEP
 70
    46
  9
$DIMATFIT
 70
     3
  9
$DIMFRAC
 70
     0
  9
$DIMLDRBLK
  1

  9
$DIMLUNIT
 70
     2
  9
$DIMLWD
 70
    -2
  9
$DIMLWE
 70
    -2
  9
$DIMTMOVE
 70
     0
  9
$DIMFXL
 40
1.0
  9
$DIMFXLON
 70
     0
  9
$DIMJOGANG
 40
0.7853981633974483
  9
$DIMTFILL
 70
     0
  9
$DIMTFILLCLR
 70
     0
  9
$DIMARCSYM
 70
     0
  9
$DIMLTYPE
  6

  9
$DIMLTEX1
  6

  9
$DIMLTEX2
  6

  9
$DIMTXTDIRECTION
 70
     0
  9
$LUNITS
 70
     2
  9
$LUPREC
 70
     4
  9
$SKETCHINC
 40
0.1
  9
$FILLETRAD
 40
0.0
  9
$AUNITS
 70
     0
  9
$AUPREC
 70
     0
  9
$MENU
  1
.
  9
$ELEVATION
 40
0.0
  9
$PELEVATION
 40
0.0
  9
$THICKNESS
 40
0.0
  9
$LIMCHECK
 70
     0
  9
$CHAMFERA
 40
0.0
  9
$CHAMFERB
 40
0.0
  9
$CHAMFERC
 40
0.0
  9
$CHAMFERD
 40
0.0
  9
$SKPOLY
 70
     0
  9
$TDCREATE
 40
2460328.651597222
  9
$TDUCREATE
 40
2460328.276597222
  9
$TDUPDATE
 40
2460328.651597222
  9
$TDUUPDATE
 40
2460328.276597222
  9
$TDINDWG
 40
0.0000000000
  9
$TDUSRTIMER
 40
0.0000000000
  9
$USRTIMER
 70
     1
  9
$ANGBASE
 50
0.0
  9
$ANGDIR
 70
     0
  9
$PDMODE
 70
     0
  9
$PDSIZE
 40
0.0
  9
$PLINEWID
 40
0.0
  9
$SPLFRAME
 70
     0
  9
$SPLINETYPE
 70
     6
  9
$SPLINESEGS
 70
     8
  9
$HANDSEED
  5
F4
  9
$SURFTAB1
 70
     6
  9
$SURFTAB2
 70
     6
  9
$SURFTYPE
 70
     6
  9
$SURFU
 70
     6
  9
$SURFV
 70
     6
  9
$UCSBASE
  2

  9
$UCSNAME
  2

  9
$UCSORG
 10
0.0
 20
0.0
 30
0.0
  9
$UCSXDIR
 10
1.0
 20
0.0
 30
0.0
  9
$UCSYDIR
 10
0.0
 20
1.0
 30
0.0
  9
$UCSORTHOREF
  2

  9
$UCSORTHOVIEW
 70
     0
  9
$UCSORGTOP
 10
0.0
 20
0.0
 30
0.0
  9
$UCSORGBOTTOM
 10
0.0
 20
0.0
 30
0.0
  9
$UCSORGLEFT
 10
0.0
 20
0.0
 30
0.0
  9
$UCSORGRIGHT
 10
0.0
 20
0.0
 30
0.0
  9
$UCSORGFRONT
 10
0.0
 20
0.0
 30
0.0
  9
$UCSORGBACK
 10
0.0
 20
0.0
 30
0.0
  9
$PUCSBASE
  2

  9
$PUCSNAME
  2

  9
$PUCSORG
 10
0.0
 20
0.0
 30
0.0
  9
$PUCSXDIR
 10
1.0
 20
0.0
 30
0.0
  9
$PUCSYDIR
 10
0.0
 20
1.0
 30
0.0
  9
$PUCSORTHOREF
  2

  9
$PUCSORTHOVIEW
 70
     0
  9
$PUCSORGTOP
 10
0.0
 20
0.0
 30
0.0
  9
$PUCSORGBOTTOM
 10
0.0
 20
0.0
 30
0.0
  9
$PUCSORGLEFT
 10
0.0
 20
0.0
 30
0.0
  9
$PUCSORGRIGHT
 10
0.0
 20
0.0
 30
0.0
  9
$PUCSORGFRONT
 10
0.0
 20
0.0
 30
0.0
  9
$PUCSORGBACK
 10
0.0
 20
0.0
 30
0.0
  9
$USERI1
 70
     0
  9
$USERI2
 70
     0
  9
$USERI3
 70
     0
  9
$USERI4
 70
     0
  9
$USERI5
 70
     0
  9
$USERR1
 40
0.0
  9
$USERR2
 40
0.0
  9
$USERR3
 40
0.0
  9
$USERR4
 40
0.0
  9
$USERR5
 40
0.0
  9
$WORLDVIEW
 70
     1
  9
$SHADEDGE
 70
     3
  9
$SHADEDIF
 70
    70
  9
$TILEMODE
 70
     1
  9
$MAXACTVP
 70
    64
  9
$PINSBASE
 10
0.0
 20
0.0
 30
0.0
  9
$PLIMCHECK
 70
     0
  9
$PEXTMIN
 10
1.000000000000000E+20
 20
1.000000000000000E+20
 30
1.000000000000000E+20
  9
$PEXTMAX
 10
-1.000000000000000E+20
 20
-1.000000000000000E+20
 30
-1.000000000000000E+20
  9
$PLIMMIN
 10
0.0
 20
0.0
  9
$PLIMMAX
 10
12.0
 20
9.0
  9
$UNITMODE
 70
     0
  9
$VISRETAIN
 70
     1
  9
$PLINEGEN
 70
     0
  9
$PSLTSCALE
 70
     1
  9
$TREEDEPTH
 70
  3020
  9
$CMLSTYLE
  2
Standard
  9
$CMLJUST
 70
     0
  9
$CMLSCALE
 40
1.0
  9
$PROXYGRAPHICS
 70
     1
  9
$MEASUREMENT
 70
     0
  9
$CELWEIGHT
370
    -1
  9
$ENDCAPS
280
     0
  9
$JOINSTYLE
280
     0
  9
$LWDISPLAY
290
     1
  9
$INSUNITS
 70
     4
  9
$HYPERLINKBASE
  1

  9
$STYLESHEET
  1

  9
$XEDIT
290
     1
  9
$CEPSNTYPE
380
     0
  9
$PSTYLEMODE
290
     1
  9
$FINGERPRINTGUID
  2
{5A385B4D-A26D-7A45-80A0-0EB8985AAADC}
  9
$VERSIONGUID
  2
{87DE398A-4800-2240-8CD9-577B06FF2D32}
  9
$EXTNAMES
290
     1
  9
$PSVPSCALE
 40
0.0
  9
$OLESTARTUP
290
     0
  9
$SORTENTS
280
   127
  9
$INDEXCTL
280
     0
  9
$HIDETEXT
280
     1
  9
$XCLIPFRAME
280
     2
  9
$HALOGAP
280
     0
  9
$OBSCOLOR
 70
   257
  9
$OBSLTYPE
280
     0
  9
$INTERSECTIONDISPLAY
280
     0
  9
$INTERSECTIONCOLOR
 70
   257
  9
$DIMASSOC
280
     2
  9
$PROJECTNAME
  1

  9
$CAMERADISPLAY
290
     0
  9
$LENSLENGTH
 40
50.0
  9
$CAMERAHEIGHT
 40
0.0
  9
$STEPSPERSEC
 40
2.0
  9
$STEPSIZE
 40
6.0
  9
$3DDWFPREC
 40
2.0
  9
$PSOLWIDTH
 40
0.25
  9
$PSOLHEIGHT
 40
4.0
  9
$LOFTANG1
 40
1.570796326794896
  9
$LOFTANG2
 40
1.570796326794896
  9
$LOFTMAG1
 40
0.0
  9
$LOFTMAG2
 40
0.0
  9
$LOFTPARAM
 70
     7
  9
$LOFTNORMALS
280
     1
  9
$LATITUDE
 40
37.795
  9
$LONGITUDE
 40
-122.394
  9
$NORTHDIRECTION
 40
0.0
  9
$TIMEZONE
 70
 -8000
  9
$LIGHTGLYPHDISPLAY
280
     1
  9
$TILEMODELIGHTSYNCH
280
     1
  9
$CMATERIAL
347
11
  9
$SOLIDHIST
280
     0
  9
$SHOWHIST
280
     1
  9
$DWFFRAME
280
     2
  9
$DGNFRAME
280
     0
  9
$REALWORLDSCALE
290
     1
  9
$INTERFERECOLOR
 62
     1
  9
$INTERFEREOBJVS
345
33
  9
$INTERFEREVPVS
346
30
  9
$CSHADOW
280
     0
  9
$SHADOWPLANELOCATION
 40
0.0
  0
ENDSEC
  0
SECTION
  2
CLASSES
  0
CLASS
  1
ACDBDICTIONARYWDFLT
  2
AcDbDictionaryWithDefault
  3
ObjectDBX Classes
 90
        0
 91
        1
280
     0
281
     0
  0
CLASS
  1
MATERIAL
  2
AcDbMaterial
  3
ObjectDBX Classes
 90
     1153
 91
        3
280
     0
281
     0
  0
CLASS
  1
VISUALSTYLE
  2
AcDbVisualStyle
  3
ObjectDBX Classes
 90
     4095
 91
       24
280
     0
281
     0
  0
CLASS
  1
SCALE
  2
AcDbScale
  3
ObjectDBX Classes
 90
     1153
 91
       17
280
     0
281
     0
  0
CLASS
  1
TABLESTYLE
  2
AcDbTableStyle
  3
ObjectDBX Classes
 90
     4095
 91
        1
280
     0
281
     0
  0
CLASS
  1
MLEADERSTYLE
  2
AcDbMLeaderStyle
  3
ACDB_MLEADERSTYLE_CLASS
 90
     4095
 91
        1
280
     0
281
     0
  0
CLASS
  1
ACDBSECTIONVIEWSTYLE
  2
AcDbSectionViewStyle
  3
ObjectDBX Classes
 90
     1025
 91
        1
280
     0
281
     0
  0
CLASS
  1
ACDBDETAILVIEWSTYLE
  2
AcDbDetailViewStyle
  3
ObjectDBX Classes
 90
     1025
 91
        1
280
     0
281
     0
  0
CLASS
  1
DICTIONARYVAR
  2
AcDbDictionaryVar
  3
ObjectDBX Classes
 90
        0
 91
        5
280
     0
281
     0
  0
CLASS
  1
CELLSTYLEMAP
  2
AcDbCellStyleMap
  3
ObjectDBX Classes
 90
     1152
 91
        1
280
     0
281
     0
  0
ENDSEC
  0
SECTION
  2
TABLES
  0
TABLE
  2
VPORT
  5
8
330
0
100
AcDbSymbolTable
 70
     1
  0
VPORT
  5
57
330
8
100
AcDbSymbolTableRecord
100
AcDbViewportTableRecord
  2
*Active
 70
     0
 10
0.0
 20
0.0
 11
1.0
 21
1.0
 12
0.0
 22
0.0
 13
0.0
 23
0.0
 14
1.0
 24
1.0
 15
0.0
 25
0.0
 16
0.0
 26
0.0
 36
1.0
 17
49.99999998749986
 27
-49.99999998749986
 37
0.0
 40
101.9999999744997
 41
1.0
 42
50.0
 43
0.0
 44
0.0
 50
0.0
 51
0.0
 71
     0
 72
   100
 73
     1
 74
     1
 75
     0
 76
     0
 77
     0
 78
     0
281
     0
 65
     1
110
0.0
120
0.0
130
0.0
111
1.0
121
0.0
131
0.0
112
0.0
122
1.0
132
0.0
 79
     0
146
0.0
 60
     3
 61
     5
292
     1
282
     1
141
0.0
142
0.0
 63
   250
421
  3355443
  0
ENDTAB
  0
TABLE
  2
LTYPE
  5
5
330
0
100
AcDbSymbolTable
 70
     1
  0
LTYPE
  5
5B
330
5
100
AcDbSymbolTableRecord
100
AcDbLinetypeTableRecord
  2
ByBlock
 70
     0
  3

 72
    65
 73
     0
 40
0.0
  0
LTYPE
  5
5C
330
5
100
AcDbSymbolTableRecord
100
AcDbLinetypeTableRecord
  2
ByLayer
 70
     0
  3

 72
    65
 73
     0
 40
0.0
  0
LTYPE
  5
5D
330
5
100
AcDbSymbolTableRecord
100
AcDbLinetypeTableRecord
  2
Continuous
 70
     0
  3
Solid line
 72
    65
 73
     0
 40
0.0
  0
ENDTAB
  0
TABLE
  2
LAYER
  5
2
330
0
100
AcDbSymbolTable
 70
     2
  0
LAYER
  5
54
330
2
100
AcDbSymbolTableRecord
100
AcDbLayerTableRecord
  2
0
 70
     0
 62
     7
  6
Continuous
370
    -3
390
F
347
21
348
0
  0
LAYER
  5
78
330
2
100
AcDbSymbolTableRecord
100
AcDbLayerTableRecord
  2
レイヤー 1
 70
     0
 62
     7
  6
Continuous
370
     0
390
F
347
21
348
0
  0
ENDTAB
  0
TABLE
  2
STYLE
  5
3
330
0
100
AcDbSymbolTable
 70
     2
  0
STYLE
  5
55
330
3
100
AcDbSymbolTableRecord
100
AcDbTextStyleTableRecord
  2
Standard
 70
     0
 40
0.0
 41
1.0
 50
0.0
 71
     0
 42
0.2
  3
txt
  4

  0
STYLE
  5
5A
330
3
100
AcDbSymbolTableRecord
100
AcDbTextStyleTableRecord
  2
Annotative
 70
     0
 40
0.0
 41
1.0
 50
0.0
 71
     0
 42
0.2
  3
txt
  4

1001
AcadAnnotative
1000
AnnotativeData
1002
{
1070
     1
1070
     1
1002
}
  0
ENDTAB
  0
TABLE
  2
VIEW
  5
6
330
0
100
AcDbSymbolTable
 70
     0
  0
ENDTAB
  0
TABLE
  2
UCS
  5
7
330
0
100
AcDbSymbolTable
 70
     0
  0
ENDTAB
  0
TABLE
  2
APPID
  5
9
330
0
100
AcDbSymbolTable
 70
     2
  0
APPID
  5
56
330
9
100
AcDbSymbolTableRecord
100
AcDbRegAppTableRecord
  2
ACAD
 70
     0
  0
APPID
  5
5E
330
9
100
AcDbSymbolTableRecord
100
AcDbRegAppTableRecord
  2
AcadAnnotative
 70
     0
  0
ENDTAB
  0
TABLE
  2
DIMSTYLE
  5
A
330
0
100
AcDbSymbolTable
 70
     2
100
AcDbDimStyleTable
 71
     0
  0
DIMSTYLE
105
58
330
A
100
AcDbSymbolTableRecord
100
AcDbDimStyleTableRecord
  2
Standard
 70
     0
340
55
  0
DIMSTYLE
105
59
330
A
100
AcDbSymbolTableRecord
100
AcDbDimStyleTableRecord
  2
Annotative
 70
     0
340
55
1001
AcadAnnotative
1000
AnnotativeData
1002
{
1070
     1
1070
     1
1002
}
  0
ENDTAB
  0
TABLE
  2
BLOCK_RECORD
  5
1
330
0
100
AcDbSymbolTable
 70
     9
  0
BLOCK_RECORD
  5
70
330
1
100
AcDbSymbolTableRecord
100
AcDbBlockTableRecord
  2
*Model_Space
340
73
 70
     0
280
     1
281
     0
  0
BLOCK_RECORD
  5
6C
330
1
100
AcDbSymbolTableRecord
100
AcDbBlockTableRecord
  2
*Paper_Space
340
6F
 70
     0
280
     1
281
     0
  0
BLOCK_RECORD
  5
74
330
1
100
AcDbSymbolTableRecord
100
AcDbBlockTableRecord
  2
*Paper_Space0
340
77
 70
     0
280
     1
281
     0
  0
BLOCK_RECORD
  5
79
330
1
100
AcDbSymbolTableRecord
100
AcDbBlockTableRecord
  2
Block_0
340
0
102
{BLKREFS
331
7A
102
}
 70
     0
280
     1
281
     0
  0
BLOCK_RECORD
  5
7D
330
1
100
AcDbSymbolTableRecord
100
AcDbBlockTableRecord
  2
Block_1
340
0
102
{BLKREFS
331
7E
102
}
 70
     0
280
     1
281
     0
  0
BLOCK_RECORD
  5
C0
330
1
100
AcDbSymbolTableRecord
100
AcDbBlockTableRecord
  2
Block_2
340
0
102
{BLKREFS
331
C1
102
}
 70
     0
280
     1
281
     0
  0
BLOCK_RECORD
  5
C5
330
1
100
AcDbSymbolTableRecord
100
AcDbBlockTableRecord
  2
Block_3
340
0
102
{BLKREFS
331
C6
102
}
 70
     0
280
     1
281
     0
  0
BLOCK_RECORD
  5
CE
330
1
100
AcDbSymbolTableRecord
100
AcDbBlockTableRecord
  2
Block_4
340
0
102
{BLKREFS
331
CF
102
}
 70
     0
280
     1
281
     0
  0
BLOCK_RECORD
  5
D5
330
1
100
AcDbSymbolTableRecord
100
AcDbBlockTableRecord
  2
Block_5
340
0
102
{BLKREFS
331
D6
102
}
 70
     0
280
     1
281
     0
  0
BLOCK_RECORD
  5
D9
330
1
100
AcDbSymbolTableRecord
100
AcDbBlockTableRecord
  2
Block_6
340
0
102
{BLKREFS
331
DA
102
}
 70
     0
280
     1
281
     0
  0
BLOCK_RECORD
  5
E3
330
1
100
AcDbSymbolTableRecord
100
AcDbBlockTableRecord
  2
Block_7
340
0
102
{BLKREFS
331
E4
102
}
 70
     0
280
     1
281
     0
  0
ENDTAB
  0
ENDSEC
  0
SECTION
  2
BLOCKS
  0
BLOCK
  5
71
330
70
100
AcDbEntity
  8
0
100
AcDbBlockBegin
  2
*Model_Space
 70
     0
 10
0.0
 20
0.0
 30
0.0
  3
*Model_Space
  1

  0
ENDBLK
  5
72
330
70
100
AcDbEntity
  8
0
100
AcDbBlockEnd
  0
BLOCK
  5
6D
330
6C
100
AcDbEntity
 67
     1
  8
0
100
AcDbBlockBegin
  2
*Paper_Space
 70
     0
 10
0.0
 20
0.0
 30
0.0
  3
*Paper_Space
  1

  0
ENDBLK
  5
6E
330
6C
100
AcDbEntity
 67
     1
  8
0
100
AcDbBlockEnd
  0
BLOCK
  5
75
330
74
100
AcDbEntity
 67
     1
  8
0
100
AcDbBlockBegin
  2
*Paper_Space0
 70
     0
 10
0.0
 20
0.0
 30
0.0
  3
*Paper_Space0
  1

  0
ENDBLK
  5
76
330
74
100
AcDbEntity
 67
     1
  8
0
100
AcDbBlockEnd
  0
BLOCK
  5
7B
330
79
100
AcDbEntity
  8
0
100
AcDbBlockBegin
  2
Block_0
 70
     0
 10
0.0
 20
0.0
 30
0.0
  3
Block_0
  1

  0
INSERT
  5
7E
330
79
100
AcDbEntity
  8
レイヤー 1
100
AcDbBlockReference
  2
Block_1
 10
0.0
 20
0.0
 30
0.0
  0
ENDBLK
  5
7C
330
79
100
AcDbEntity
  8
0
100
AcDbBlockEnd
  0
BLOCK
  5
7F
330
7D
100
AcDbEntity
  8
0
100
AcDbBlockBegin
  2
Block_1
 70
     0
 10
0.0
 20
0.0
 30
0.0
  3
Block_1
  1

  0
SPLINE
  5
81
330
7D
100
AcDbEntity
  8
レイヤー 1
100
AcDbSpline
210
0.0
220
0.0
230
1.0
 70
    11
 71
     3
 72
    23
 73
    19
 74
     0
 42
0.0000000001
 43
0.0000000001
 40
0.0
 40
0.0
 40
0.0
 40
0.0
 40
1.0
 40
1.0
 40
1.0
 40
2.0
 40
2.0
 40
2.0
 40
3.0
 40
3.0
 40
3.0
 40
4.0
 40
4.0
 40
4.0
 40
5.0
 40
5.0
 40
5.0
 40
6.0
 40
6.0
 40
6.0
 40
6.0
 10
2.992582193262271
 20
-2.431031629166547
 30
0.0
 10
2.992582193262271
 20
-2.431031629166547
 30
0.0
 10
3.157946776554263
 20
-2.431031629166547
 30
0.0
 10
3.157946776554263
 20
-2.431031629166547
 30
0.0
 10
3.157946776554263
 20
-2.431031629166547
 30
0.0
 10
3.157946776554263
 20
-4.219725205108263
 30
0.0
 10
3.157946776554263
 20
-4.219725205108263
 30
0.0
 10
3.157946776554263
 20
-4.219725205108263
 30
0.0
 10
3.932921005961214
 20
-4.219725205108263
 30
0.0
 10
3.932921005961214
 20
-4.219725205108263
 30
0.0
 10
3.932921005961214
 20
-4.219725205108263
 30
0.0
 10
3.905877006402003
 20
-4.366141763231381
 30
0.0
 10
3.905877006402003
 20
-4.366141763231381
 30
0.0
 10
3.905877006402003
 20
-4.366141763231381
 30
0.0
 10
2.992582193262271
 20
-4.366141763231381
 30
0.0
 10
2.992582193262271
 20
-4.366141763231381
 30
0.0
 10
2.992582193262271
 20
-4.366141763231381
 30
0.0
 10
2.992582193262271
 20
-2.431031629166547
 30
0.0
 10
2.992582193262271
 20
-2.431031629166547
 30
0.0
  0
HATCH
  5
82
330
7D
100
AcDbEntity
  8
レイヤー 1
 62
   250
420
  4078137
440
 33554687
100
AcDbHatch
 10
0.0
 20
0.0
 30
0.0
210
0.0
220
0.0
230
1.0
  2
SOLID
 70
     1
 71
     1
 91
        1
 92
        1
 93
        1
 72
     4
 94
        3
 73
     0
 74
     0
 95
       23
 96
       19
 40
0.0
 40
0.0
 40
0.0
 40
0.0
 40
1.0
 40
1.0
 40
1.0
 40
2.0
 40
2.0
 40
2.0
 40
3.0
 40
3.0
 40
3.0
 40
4.0
 40
4.0
 40
4.0
 40
5.0
 40
5.0
 40
5.0
 40
6.0
 40
6.0
 40
6.0
 40
6.0
 10
2.992582193262271
 20
-2.431031629166547
 10
2.992582193262271
 20
-2.431031629166547
 10
3.157946776554263
 20
-2.431031629166547
 10
3.157946776554263
 20
-2.431031629166547
 10
3.157946776554263
 20
-2.431031629166547
 10
3.157946776554263
 20
-4.219725205108263
 10
3.157946776554263
 20
-4.219725205108263
 10
3.157946776554263
 20
-4.219725205108263
 10
3.932921005961214
 20
-4.219725205108263
 10
3.932921005961214
 20
-4.219725205108263
 10
3.932921005961214
 20
-4.219725205108263
 10
3.905877006402003
 20
-4.366141763231381
 10
3.905877006402003
 20
-4.366141763231381
 10
3.905877006402003
 20
-4.366141763231381
 10
2.992582193262271
 20
-4.366141763231381
 10
2.992582193262271
 20
-4.366141763231381
 10
2.992582193262271
 20
-4.366141763231381
 10
2.992582193262271
 20
-2.431031629166547
 10
2.992582193262271
 20
-2.431031629166547
 97
        0
 97
        1
330
81
 75
     2
 76
     1
 98
        1
 10
0.0
 20
0.0
450
        0
451
        0
460
0.0
461
0.0
452
        0
462
0.0
453
        0
470

  0
SPLINE
  5
83
330
7D
100
AcDbEntity
  8
レイヤー 1
100
AcDbSpline
210
0.0
220
0.0
230
1.0
 70
    11
 71
     3
 72
    35
 73
    31
 74
     0
 42
0.0000000001
 43
0.0000000001
 40
0.0
 40
0.0
 40
0.0
 40
0.0
 40
1.0
 40
1.0
 40
1.0
 40
2.0
 40
2.0
 40
2.0
 40
3.0
 40
3.0
 40
3.0
 40
4.0
 40
4.0
 40
4.0
 40
5.0
 40
5.0
 40
5.0
 40
6.0
 40
6.0
 40
6.0
 40
7.0
 40
7.0
 40
7.0
 40
8.0
 40
8.0
 40
8.0
 40
9.0
 40
9.0
 40
9.0
 40
10.0
 40
10.0
 40
10.0
 40
10.0
 10
4.179589842705103
 20
-2.431031629166547
 30
0.0
 10
4.179589842705103
 20
-2.431031629166547
 30
0.0
 10
5.082032605066297
 20
-2.431031629166547
 30
0.0
 10
5.082032605066297
 20
-2.431031629166547
 30
0.0
 10
5.082032605066297
 20
-2.431031629166547
 30
0.0
 10
5.082032605066297
 20
-2.577448187289665
 30
0.0
 10
5.082032605066297
 20
-2.577448187289665
 30
0.0
 10
5.082032605066297
 20
-2.577448187289665
 30
0.0
 10
4.344954425997094
 20
-2.577448187289665
 30
0.0
 10
4.344954425997094
 20
-2.577448187289665
 30
0.0
 10
4.344954425997094
 20
-2.577448187289665
 30
0.0
 10
4.344954425997094
 20
-3.317282442747068
 30
0.0
 10
4.344954425997094
 20
-3.317282442747068
 30
0.0
 10
4.344954425997094
 20
-3.317282442747068
 30
0.0
 10
5.036040580338212
 20
-3.317282442747068
 30
0.0
 10
5.036040580338212
 20
-3.317282442747068
 30
0.0
 10
5.036040580338212
 20
-3.317282442747068
 30
0.0
 10
5.036040580338212
 20
-3.463699000870186
 30
0.0
 10
5.036040580338212
 20
-3.463699000870186
 30
0.0
 10
5.036040580338212
 20
-3.463699000870186
 30
0.0
 10
4.344954425997094
 20
-3.463699000870186
 30
0.0
 10
4.344954425997094
 20
-3.463699000870186
 30
0.0
 10
4.344954425997094
 20
-3.463699000870186
 30
0.0
 10
4.344954425997094
 20
-4.366141763231381
 30
0.0
 10
4.344954425997094
 20
-4.366141763231381
 30
0.0
 10
4.344954425997094
 20
-4.366141763231381
 30
0.0
 10
4.179589842705103
 20
-4.366141763231381
 30
0.0
 10
4.179589842705103
 20
-4.366141763231381
 30
0.0
 10
4.179589842705103
 20
-4.366141763231381
 30
0.0
 10
4.179589842705103
 20
-2.431031629166547
 30
0.0
 10
4.179589842705103
 20
-2.431031629166547
 30
0.0
  0
HATCH
  5
84
330
7D
100
AcDbEntity
  8
レイヤー 1
 62
   250
420
  4078137
440
 33554687
100
AcDbHatch
 10
0.0
 20
0.0
 30
0.0
210
0.0
220
0.0
230
1.0
  2
SOLID
 70
     1
 71
     1
 91
        1
 92
        1
 93
        1
 72
     4
 94
        3
 73
     0
 74
     0
 95
       35
 96
       31
 40
0.0
 40
0.0
 40
0.0
 40
0.0
 40
1.0
 40
1.0
 40
1.0
 40
2.0
 40
2.0
 40
2.0
 40
3.0
 40
3.0
 40
3.0
 40
4.0
 40
4.0
 40
4.0
 40
5.0
 40
5.0
 40
5.0
 40
6.0
 40
6.0
 40
6.0
 40
7.0
 40
7.0
 40
7.0
 40
8.0
 40
8.0
 40
8.0
 40
9.0
 40
9.0
 40
9.0
 40
10.0
 40
10.0
 40
10.0
 40
10.0
 10
4.179589842705103
 20
-2.431031629166547
 10
4.179589842705103
 20
-2.431031629166547
 10
5.082032605066297
 20
-2.431031629166547
 10
5.082032605066297
 20
-2.431031629166547
 10
5.082032605066297
 20
-2.431031629166547
 10
5.082032605066297
 20
-2.577448187289665
 10
5.082032605066297
 20
-2.577448187289665
 10
5.082032605066297
 20
-2.577448187289665
 10
4.344954425997094
 20
-2.577448187289665
 10
4.344954425997094
 20
-2.577448187289665
 10
4.344954425997094
 20
-2.577448187289665
 10
4.344954425997094
 20
-3.317282442747068
 10
4.344954425997094
 20
-3.317282442747068
 10
4.344954425997094
 20
-3.317282442747068
 10
5.036040580338212
 20
-3.317282442747068
 10
5.036040580338212
 20
-3.317282442747068
 10
5.036040580338212
 20
-3.317282442747068
 10
5.036040580338212
 20
-3.463699000870186
 10
5.036040580338212
 20
-3.463699000870186
 10
5.036040580338212
 20
-3.463699000870186
 10
4.344954425997094
 20
-3.463699000870186
 10
4.344954425997094
 20
-3.463699000870186
 10
4.344954425997094
 20
-3.463699000870186
 10
4.344954425997094
 20
-4.366141763231381
 10
4.344954425997094
 20
-4.366141763231381
 10
4.344954425997094
 20
-4.366141763231381
 10
4.179589842705103
 20
-4.366141763231381
 10
4.179589842705103
 20
-4.366141763231381
 10
4.179589842705103
 20
-4.366141763231381
 10
4.179589842705103
 20
-2.431031629166547
 10
4.179589842705103
 20
-2.431031629166547
 97
        0
 97
        1
330
83
 75
     2
 76
     1
 98
        1
 10
0.0
 20
0.0
450
        0
451
        0
460
0.0
461
0.0
452
        0
462
0.0
453
        0
470

  0
SPLINE
  5
85
330
7D
100
AcDbEntity
  8
レイヤー 1
100
AcDbSpline
210
0.0
220
0.0
230
1.0
 70
    11
 71
     3
 72
    32
 73
    28
 74
     0
 42
0.0000000001
 43
0.0000000001
 40
0.0
 40
0.0
 40
0.0
 40
0.0
 40
1.0
 40
1.0
 40
1.0
 40
2.0
 40
2.0
 40
2.0
 40
3.0
 40
3.0
 40
3.0
 40
4.0
 40
4.0
 40
4.0
 40
5.0
 40
5.0
 40
5.0
 40
6.0
 40
6.0
 40
6.0
 40
7.0
 40
7.0
 40
7.0
 40
8.0
 40
8.0
 40
8.0
 40
9.0
 40
9.0
 40
9.0
 40
9.0
 10
5.716274683900792
 20
-3.539491101545682
 30
0.0
 10
5.716274683900792
 20
-3.539491101545682
 30
0.0
 10
5.209501138020542
 20
-2.431031629166547
 30
0.0
 10
5.209501138020542
 20
-2.431031629166547
 30
0.0
 10
5.209501138020542
 20
-2.431031629166547
 30
0.0
 10
5.391057670093208
 20
-2.431031629166547
 30
0.0
 10
5.391057670093208
 20
-2.431031629166547
 30
0.0
 10
5.391057670093208
 20
-2.431031629166547
 30
0.0
 10
5.802918835354826
 20
-3.37688259464189
 30
0.0
 10
5.802918835354826
 20
-3.37688259464189
 30
0.0
 10
5.802918835354826
 20
-3.37688259464189
 30
0.0
 10
6.217708331778906
 20
-2.431031629166547
 30
0.0
 10
6.217708331778906
 20
-2.431031629166547
 30
0.0
 10
6.217708331778906
 20
-2.431031629166547
 30
0.0
 10
6.385656736684835
 20
-2.431031629166547
 30
0.0
 10
6.385656736684835
 20
-2.431031629166547
 30
0.0
 10
6.385656736684835
 20
-2.431031629166547
 30
0.0
 10
5.881639267192785
 20
-3.534151203543545
 30
0.0
 10
5.881639267192785
 20
-3.534151203543545
 30
0.0
 10
5.881639267192785
 20
-3.534151203543545
 30
0.0
 10
5.881639267192785
 20
-4.366141763231381
 30
0.0
 10
5.881639267192785
 20
-4.366141763231381
 30
0.0
 10
5.881639267192785
 20
-4.366141763231381
 30
0.0
 10
5.716274683900792
 20
-4.366141763231381
 30
0.0
 10
5.716274683900792
 20
-4.366141763231381
 30
0.0
 10
5.716274683900792
 20
-4.366141763231381
 30
0.0
 10
5.716274683900792
 20
-3.539491101545682
 30
0.0
 10
5.716274683900792
 20
-3.539491101545682
 30
0.0
  0
HATCH
  5
86
330
7D
100
AcDbEntity
  8
レイヤー 1
 62
   250
420
  4078137
440
 33554687
100
AcDbHatch
 10
0.0
 20
0.0
 30
0.0
210
0.0
220
0.0
230
1.0
  2
SOLID
 70
     1
 71
     1
 91
        1
 92
        1
 93
        1
 72
     4
 94
        3
 73
     0
 74
     0
 95
       32
 96
       28
 40
0.0
 40
0.0
 40
0.0
 40
0.0
 40
1.0
 40
1.0
 40
1.0
 40
2.0
 40
2.0
 40
2.0
 40
3.0
 40
3.0
 40
3.0
 40
4.0
 40
4.0
 40
4.0
 40
5.0
 40
5.0
 40
5.0
 40
6.0
 40
6.0
 40
6.0
 40
7.0
 40
7.0
 40
7.0
 40
8.0
 40
8.0
 40
8.0
 40
9.0
 40
9.0
 40
9.0
 40
9.0
 10
5.716274683900792
 20
-3.539491101545682
 10
5.716274683900792
 20
-3.539491101545682
 10
5.209501138020542
 20
-2.431031629166547
 10
5.209501138020542
 20
-2.431031629166547
 10
5.209501138020542
 20
-2.431031629166547
 10
5.391057670093208
 20
-2.431031629166547
 10
5.391057670093208
 20
-2.431031629166547
 10
5.391057670093208
 20
-2.431031629166547
 10
5.802918835354826
 20
-3.37688259464189
 10
5.802918835354826
 20
-3.37688259464189
 10
5.802918835354826
 20
-3.37688259464189
 10
6.217708331778906
 20
-2.431031629166547
 10
6.217708331778906
 20
-2.431031629166547
 10
6.217708331778906
 20
-2.431031629166547
 10
6.385656736684835
 20
-2.431031629166547
 10
6.385656736684835
 20
-2.431031629166547
 10
6.385656736684835
 20
-2.431031629166547
 10
5.881639267192785
 20
-3.534151203543545
 10
5.881639267192785
 20
-3.534151203543545
 10
5.881639267192785
 20
-3.534151203543545
 10
5.881639267192785
 20
-4.366141763231381
 10
5.881639267192785
 20
-4.366141763231381
 10
5.881639267192785
 20
-4.366141763231381
 10
5.716274683900792
 20
-4.366141763231381
 10
5.716274683900792
 20
-4.366141763231381
 10
5.716274683900792
 20
-4.366141763231381
 10
5.716274683900792
 20
-3.539491101545682
 10
5.716274683900792
 20
-3.539491101545682
 97
        0
 97
        1
330
85
 75
     2
 76
     1
 98
        1
 10
0.0
 20
0.0
450
        0
451
        0
460
0.0
461
0.0
452
        0
462
0.0
453
        0
470

  0
SPLINE
  5
87
330
7D
100
AcDbEntity
  8
レイヤー 1
100
AcDbSpline
210
0.0
220
0.0
230
1.0
 70
    11
 71
     3
 72
    17
 73
    13
 74
     0
 42
0.0000000001
 43
0.0000000001
 40
0.0
 40
0.0
 40
0.0
 40
0.0
 40
1.0
 40
1.0
 40
1.0
 40
2.0
 40
2.0
 40
2.0
 40
3.0
 40
3.0
 40
3.0
 40
4.0
 40
4.0
 40
4.0
 40
4.0
 10
6.388412813073036
 20
-3.498838974819734
 30
0.0
 10
6.388412813073036
 20
-3.498838974819734
 30
0.0
 10
6.992682561185857
 20
-3.498838974819734
 30
0.0
 10
6.992682561185857
 20
-3.498838974819734
 30
0.0
 10
6.992682561185857
 20
-3.498838974819734
 30
0.0
 10
6.992682561185857
 20
-3.653351507333189
 30
0.0
 10
6.992682561185857
 20
-3.653351507333189
 30
0.0
 10
6.992682561185857
 20
-3.653351507333189
 30
0.0
 10
6.388412813073036
 20
-3.653351507333189
 30
0.0
 10
6.388412813073036
 20
-3.653351507333189
 30
0.0
 10
6.388412813073036
 20
-3.653351507333189
 30
0.0
 10
6.388412813073036
 20
-3.498838974819734
 30
0.0
 10
6.388412813073036
 20
-3.498838974819734
 30
0.0
  0
HATCH
  5
88
330
7D
100
AcDbEntity
  8
レイヤー 1
 62
   250
420
  4078137
440
 33554687
100
AcDbHatch
 10
0.0
 20
0.0
 30
0.0
210
0.0
220
0.0
230
1.0
  2
SOLID
 70
     1
 71
     1
 91
        1
 92
        1
 93
        1
 72
     4
 94
        3
 73
     0
 74
     0
 95
       17
 96
       13
 40
0.0
 40
0.0
 40
0.0
 40
0.0
 40
1.0
 40
1.0
 40
1.0
 40
2.0
 40
2.0
 40
2.0
 40
3.0
 40
3.0
 40
3.0
 40
4.0
 40
4.0
 40
4.0
 40
4.0
 10
6.388412813073036
 20
-3.498838974819734
 10
6.388412813073036
 20
-3.498838974819734
 10
6.992682561185857
 20
-3.498838974819734
 10
6.992682561185857
 20
-3.498838974819734
 10
6.992682561185857
 20
-3.498838974819734
 10
6.992682561185857
 20
-3.653351507333189
 10
6.992682561185857
 20
-3.653351507333189
 10
6.992682561185857
 20
-3.653351507333189
 10
6.388412813073036
 20
-3.653351507333189
 10
6.388412813073036
 20
-3.653351507333189
 10
6.388412813073036
 20
-3.653351507333189
 10
6.388412813073036
 20
-3.498838974819734
 10
6.388412813073036
 20
-3.498838974819734
 97
        0
 97
        1
330
87
 75
     2
 76
     1
 98
        1
 10
0.0
 20
0.0
450
        0
451
        0
460
0.0
461
0.0
452
        0
462
0.0
453
        0
470

  0
SPLINE
  5
89
330
7D
100
AcDbEntity
  8
レイヤー 1
100
AcDbSpline
210
0.0
220
0.0
230
1.0
 70
     9
 71
     3
 72
    53
 73
    49
 74
     0
 42
0.0000000001
 43
0.0000000001
 40
0.0
 40
0.0
 40
0.0
 40
0.0
 40
1.0
 40
1.0
 40
1.0
 40
2.0
 40
2.0
 40
2.0
 40
3.0
 40
3.0
 40
3.0
 40
4.0
 40
4.0
 40
4.0
 40
5.0
 40
5.0
 40
5.0
 40
6.0
 40
6.0
 40
6.0
 40
7.0
 40
7.0
 40
7.0
 40
8.0
 40
8.0
 40
8.0
 40
9.0
 40
9.0
 40
9.0
 40
10.0
 40
10.0
 40
10.0
 40
11.0
 40
11.0
 40
11.0
 40
12.0
 40
12.0
 40
12.0
 40
13.0
 40
13.0
 40
13.0
 40
14.0
 40
14.0
 40
14.0
 40
15.0
 40
15.0
 40
15.0
 40
16.0
 40
16.0
 40
16.0
 40
16.0
 10
7.233839245153346
 20
-3.404098848975364
 30
0.0
 10
7.233839245153346
 20
-3.069752332131867
 30
0.0
 10
7.289822046788655
 20
-2.815848794868954
 30
0.0
 10
7.401787650059275
 20
-2.642388237186625
 30
0.0
 10
7.513925508104158
 20
-2.468927679504295
 30
0.0
 10
7.676534015007949
 20
-2.382283528050262
 30
0.0
 10
7.889785425544914
 20
-2.382283528050262
 30
0.0
 10
8.202255586057075
 20
-2.382283528050262
 30
0.0
 10
8.391908092520079
 20
-2.59088405968214
 30
0.0
 10
8.458915199708188
 20
-3.008257377720158
 30
0.0
 10
8.458915199708188
 20
-3.008257377720158
 30
0.0
 10
8.296306692804396
 20
-3.038057453667569
 30
0.0
 10
8.296306692804396
 20
-3.038057453667569
 30
0.0
 10
8.265473088211409
 20
-2.86459689598524
 30
0.0
 10
8.216724987095124
 20
-2.736439343933946
 30
0.0
 10
8.149890134681278
 20
-2.653240287965162
 30
0.0
 10
8.08305528226743
 20
-2.57021348677064
 30
0.0
 10
7.994516328296509
 20
-2.52870008617338
 30
0.0
 10
7.884273272768515
 20
-2.52870008617338
 30
0.0
 10
7.72700466386686
 20
-2.52870008617338
 30
0.0
 10
7.608321124400003
 20
-2.602252874783464
 30
0.0
 10
7.527878144819419
 20
-2.749530706777895
 30
0.0
 10
7.447435165238836
 20
-2.896808538772326
 30
0.0
 10
7.407299802835675
 20
-3.113160535246015
 30
0.0
 10
7.407299802835675
 20
-3.398586696198964
 30
0.0
 10
7.407299802835675
 20
-3.684185111926176
 30
0.0
 10
7.447951929561623
 20
-3.900364853625603
 30
0.0
 10
7.52925618301352
 20
-4.047642685620034
 30
0.0
 10
7.610560436465415
 20
-4.194920517614464
 30
0.0
 10
7.72976074025506
 20
-4.268645560998811
 30
0.0
 10
7.887029349156715
 20
-4.268645560998811
 30
0.0
 10
8.134559459771915
 20
-4.268645560998811
 30
0.0
 10
8.274602591247321
 20
-4.090706379185657
 30
0.0
 10
8.307158743582933
 20
-3.734655760785086
 30
0.0
 10
8.307158743582933
 20
-3.734655760785086
 30
0.0
 10
8.475107148488863
 20
-3.734655760785086
 30
0.0
 10
8.475107148488863
 20
-3.734655760785086
 30
0.0
 10
8.4570203971913
 20
-3.955141871841076
 30
0.0
 10
8.397420245296478
 20
-4.123607041069792
 30
0.0
 10
8.296306692804396
 20
-4.240051268471237
 30
0.0
 10
8.195020885538051
 20
-4.356667750646944
 30
0.0
 10
8.056872556579532
 20
-4.414889864347666
 30
0.0
 10
7.881517196380315
 20
-4.414889864347666
 30
0.0
 10
7.668438040617613
 20
-4.414889864347666
 30
0.0
 10
7.507035317133658
 20
-4.329623751087733
 30
0.0
 10
7.397825790251238
 20
-4.158747015019341
 30
0.0
 10
7.288444008594556
 20
-3.988042533725211
 30
0.0
 10
7.233839245153346
 20
-3.736550563301973
 30
0.0
 10
7.233839245153346
 20
-3.404098848975364
 30
0.0
  0
HATCH
  5
8A
330
7D
100
AcDbEntity
  8
レイヤー 1
 62
   250
420
  4078137
440
 33554687
100
AcDbHatch
 10
0.0
 20
0.0
 30
0.0
210
0.0
220
0.0
230
1.0
  2
SOLID
 70
     1
 71
     1
 91
        1
 92
        1
 93
        1
 72
     4
 94
        3
 73
     0
 74
     0
 95
       53
 96
       49
 40
0.0
 40
0.0
 40
0.0
 40
0.0
 40
1.0
 40
1.0
 40
1.0
 40
2.0
 40
2.0
 40
2.0
 40
3.0
 40
3.0
 40
3.0
 40
4.0
 40
4.0
 40
4.0
 40
5.0
 40
5.0
 40
5.0
 40
6.0
 40
6.0
 40
6.0
 40
7.0
 40
7.0
 40
7.0
 40
8.0
 40
8.0
 40
8.0
 40
9.0
 40
9.0
 40
9.0
 40
10.0
 40
10.0
 40
10.0
 40
11.0
 40
11.0
 40
11.0
 40
12.0
 40
12.0
 40
12.0
 40
13.0
 40
13.0
 40
13.0
 40
14.0
 40
14.0
 40
14.0
 40
15.0
 40
15.0
 40
15.0
 40
16.0
 40
16.0
 40
16.0
 40
16.0
 10
7.233839245153346
 20
-3.404098848975364
 10
7.233839245153346
 20
-3.069752332131867
 10
7.289822046788655
 20
-2.815848794868954
 10
7.401787650059275
 20
-2.642388237186625
 10
7.513925508104158
 20
-2.468927679504295
 10
7.676534015007949
 20
-2.382283528050262
 10
7.889785425544914
 20
-2.382283528050262
 10
8.202255586057075
 20
-2.382283528050262
 10
8.391908092520079
 20
-2.59088405968214
 10
8.458915199708188
 20
-3.008257377720158
 10
8.458915199708188
 20
-3.008257377720158
 10
8.296306692804396
 20
-3.038057453667569
 10
8.296306692804396
 20
-3.038057453667569
 10
8.265473088211409
 20
-2.86459689598524
 10
8.216724987095124
 20
-2.736439343933946
 10
8.149890134681278
 20
-2.653240287965162
 10
8.08305528226743
 20
-2.57021348677064
 10
7.994516328296509
 20
-2.52870008617338
 10
7.884273272768515
 20
-2.52870008617338
 10
7.72700466386686
 20
-2.52870008617338
 10
7.608321124400003
 20
-2.602252874783464
 10
7.527878144819419
 20
-2.749530706777895
 10
7.447435165238836
 20
-2.896808538772326
 10
7.407299802835675
 20
-3.113160535246015
 10
7.407299802835675
 20
-3.398586696198964
 10
7.407299802835675
 20
-3.684185111926176
 10
7.447951929561623
 20
-3.900364853625603
 10
7.52925618301352
 20
-4.047642685620034
 10
7.610560436465415
 20
-4.194920517614464
 10
7.72976074025506
 20
-4.268645560998811
 10
7.887029349156715
 20
-4.268645560998811
 10
8.134559459771915
 20
-4.268645560998811
 10
8.274602591247321
 20
-4.090706379185657
 10
8.307158743582933
 20
-3.734655760785086
 10
8.307158743582933
 20
-3.734655760785086
 10
8.475107148488863
 20
-3.734655760785086
 10
8.475107148488863
 20
-3.734655760785086
 10
8.4570203971913
 20
-3.955141871841076
 10
8.397420245296478
 20
-4.123607041069792
 10
8.296306692804396
 20
-4.240051268471237
 10
8.195020885538051
 20
-4.356667750646944
 10
8.056872556579532
 20
-4.414889864347666
 10
7.881517196380315
 20
-4.414889864347666
 10
7.668438040617613
 20
-4.414889864347666
 10
7.507035317133658
 20
-4.329623751087733
 10
7.397825790251238
 20
-4.158747015019341
 10
7.288444008594556
 20
-3.988042533725211
 10
7.233839245153346
 20
-3.736550563301973
 10
7.233839245153346
 20
-3.404098848975364
 97
        0
 97
        1
330
89
 75
     2
 76
     1
 98
        1
 10
0.0
 20
0.0
450
        0
451
        0
460
0.0
461
0.0
452
        0
462
0.0
453
        0
470

  0
SPLINE
  5
8B
330
7D
100
AcDbEntity
  8
レイヤー 1
100
AcDbSpline
210
0.0
220
0.0
230
1.0
 70
     9
 71
     3
 72
    53
 73
    49
 74
     0
 42
0.0000000001
 43
0.0000000001
 40
0.0
 40
0.0
 40
0.0
 40
0.0
 40
1.0
 40
1.0
 40
1.0
 40
2.0
 40
2.0
 40
2.0
 40
3.0
 40
3.0
 40
3.0
 40
4.0
 40
4.0
 40
4.0
 40
5.0
 40
5.0
 40
5.0
 40
6.0
 40
6.0
 40
6.0
 40
7.0
 40
7.0
 40
7.0
 40
8.0
 40
8.0
 40
8.0
 40
9.0
 40
9.0
 40
9.0
 40
10.0
 40
10.0
 40
10.0
 40
11.0
 40
11.0
 40
11.0
 40
12.0
 40
12.0
 40
12.0
 40
13.0
 40
13.0
 40
13.0
 40
14.0
 40
14.0
 40
14.0
 40
15.0
 40
15.0
 40
15.0
 40
16.0
 40
16.0
 40
16.0
 40
16.0
 10
8.72453206162095
 20
-3.978568521140774
 30
0.0
 10
8.72453206162095
 20
-3.978568521140774
 30
0.0
 10
8.72453206162095
 20
-2.973117403770609
 30
0.0
 10
8.72453206162095
 20
-2.973117403770609
 30
0.0
 10
8.72453206162095
 20
-2.973117403770609
 30
0.0
 10
8.879044594134406
 20
-2.973117403770609
 30
0.0
 10
8.879044594134406
 20
-2.973117403770609
 30
0.0
 10
8.879044594134406
 20
-2.973117403770609
 30
0.0
 10
8.879044594134406
 20
-3.9568644195837
 30
0.0
 10
8.879044594134406
 20
-3.9568644195837
 30
0.0
 10
8.879044594134406
 20
-4.166498479861153
 30
0.0
 10
8.959487573714989
 20
-4.271229382612748
 30
0.0
 10
9.120201278101895
 20
-4.271229382612748
 30
0.0
 10
9.167226831475554
 20
-4.271229382612748
 30
0.0
 10
9.21321885620364
 20
-4.259171548414373
 30
0.0
 10
9.258521861834674
 20
-4.234711370469099
 30
0.0
 10
9.303652612691449
 20
-4.210251192523826
 30
0.0
 10
9.340687389157883
 20
-4.179073078382315
 30
0.0
 10
9.369626191233983
 20
-4.141177028044567
 30
0.0
 10
9.418374292350268
 20
-4.077959525890232
 30
0.0
 10
9.442834470295542
 20
-4.00940212573376
 30
0.0
 10
9.442834470295542
 20
-3.935160318026626
 30
0.0
 10
9.442834470295542
 20
-3.935160318026626
 30
0.0
 10
9.442834470295542
 20
-2.973117403770609
 30
0.0
 10
9.442834470295542
 20
-2.973117403770609
 30
0.0
 10
9.442834470295542
 20
-2.973117403770609
 30
0.0
 10
9.594590926420798
 20
-2.973117403770609
 30
0.0
 10
9.594590926420798
 20
-2.973117403770609
 30
0.0
 10
9.594590926420798
 20
-2.973117403770609
 30
0.0
 10
9.594590926420798
 20
-4.366141763231381
 30
0.0
 10
9.594590926420798
 20
-4.366141763231381
 30
0.0
 10
9.594590926420798
 20
-4.366141763231381
 30
0.0
 10
9.442834470295542
 20
-4.366141763231381
 30
0.0
 10
9.442834470295542
 20
-4.366141763231381
 30
0.0
 10
9.442834470295542
 20
-4.366141763231381
 30
0.0
 10
9.442834470295542
 20
-4.181829154770515
 30
0.0
 10
9.442834470295542
 20
-4.181829154770515
 30
0.0
 10
9.397531464664506
 20
-4.254176159960762
 30
0.0
 10
9.342926701223296
 20
-4.310158961596071
 30
0.0
 10
9.278847925197649
 20
-4.349949814450707
 30
0.0
 10
9.21459689439774
 20
-4.38956841253108
 30
0.0
 10
9.147417532435367
 20
-4.409549966345529
 30
0.0
 10
9.076965329762009
 20
-4.409549966345529
 30
0.0
 10
8.966722274234014
 20
-4.409549966345529
 30
0.0
 10
8.880422632328505
 20
-4.371481661233518
 30
0.0
 10
8.818066404045483
 20
-4.295689560558022
 30
0.0
 10
8.755710175762461
 20
-4.219725205108263
 30
0.0
 10
8.72453206162095
 20
-4.114133028485356
 30
0.0
 10
8.72453206162095
 20
-3.978568521140774
 30
0.0
  0
HATCH
  5
8C
330
7D
100
AcDbEntity
  8
レイヤー 1
 62
   250
420
  4078137
440
 33554687
100
AcDbHatch
 10
0.0
 20
0.0
 30
0.0
210
0.0
220
0.0
230
1.0
  2
SOLID
 70
     1
 71
     1
 91
        1
 92
        1
 93
        1
 72
     4
 94
        3
 73
     0
 74
     0
 95
       53
 96
       49
 40
0.0
 40
0.0
 40
0.0
 40
0.0
 40
1.0
 40
1.0
 40
1.0
 40
2.0
 40
2.0
 40
2.0
 40
3.0
 40
3.0
 40
3.0
 40
4.0
 40
4.0
 40
4.0
 40
5.0
 40
5.0
 40
5.0
 40
6.0
 40
6.0
 40
6.0
 40
7.0
 40
7.0
 40
7.0
 40
8.0
 40
8.0
 40
8.0
 40
9.0
 40
9.0
 40
9.0
 40
10.0
 40
10.0
 40
10.0
 40
11.0
 40
11.0
 40
11.0
 40
12.0
 40
12.0
 40
12.0
 40
13.0
 40
13.0
 40
13.0
 40
14.0
 40
14.0
 40
14.0
 40
15.0
 40
15.0
 40
15.0
 40
16.0
 40
16.0
 40
16.0
 40
16.0
 10
8.72453206162095
 20
-3.978568521140774
 10
8.72453206162095
 20
-3.978568521140774
 10
8.72453206162095
 20
-2.973117403770609
 10
8.72453206162095
 20
-2.973117403770609
 10
8.72453206162095
 20
-2.973117403770609
 10
8.879044594134406
 20
-2.973117403770609
 10
8.879044594134406
 20
-2.973117403770609
 10
8.879044594134406
 20
-2.973117403770609
 10
8.879044594134406
 20
-3.9568644195837
 10
8.879044594134406
 20
-3.9568644195837
 10
8.879044594134406
 20
-4.166498479861153
 10
8.959487573714989
 20
-4.271229382612748
 10
9.120201278101895
 20
-4.271229382612748
 10
9.167226831475554
 20
-4.271229382612748
 10
9.21321885620364
 20
-4.259171548414373
 10
9.258521861834674
 20
-4.234711370469099
 10
9.303652612691449
 20
-4.210251192523826
 10
9.340687389157883
 20
-4.179073078382315
 10
9.369626191233983
 20
-4.141177028044567
 10
9.418374292350268
 20
-4.077959525890232
 10
9.442834470295542
 20
-4.00940212573376
 10
9.442834470295542
 20
-3.935160318026626
 10
9.442834470295542
 20
-3.935160318026626
 10
9.442834470295542
 20
-2.973117403770609
 10
9.442834470295542
 20
-2.973117403770609
 10
9.442834470295542
 20
-2.973117403770609
 10
9.594590926420798
 20
-2.973117403770609
 10
9.594590926420798
 20
-2.973117403770609
 10
9.594590926420798
 20
-2.973117403770609
 10
9.594590926420798
 20
-4.366141763231381
 10
9.594590926420798
 20
-4.366141763231381
 10
9.594590926420798
 20
-4.366141763231381
 10
9.442834470295542
 20
-4.366141763231381
 10
9.442834470295542
 20
-4.366141763231381
 10
9.442834470295542
 20
-4.366141763231381
 10
9.442834470295542
 20
-4.181829154770515
 10
9.442834470295542
 20
-4.181829154770515
 10
9.397531464664506
 20
-4.254176159960762
 10
9.342926701223296
 20
-4.310158961596071
 10
9.278847925197649
 20
-4.349949814450707
 10
9.21459689439774
 20
-4.38956841253108
 10
9.147417532435367
 20
-4.409549966345529
 10
9.076965329762009
 20
-4.409549966345529
 10
8.966722274234014
 20
-4.409549966345529
 10
8.880422632328505
 20
-4.371481661233518
 10
8.818066404045483
 20
-4.295689560558022
 10
8.755710175762461
 20
-4.219725205108263
 10
8.72453206162095
 20
-4.114133028485356
 10
8.72453206162095
 20
-3.978568521140774
 97
        0
 97
        1
330
8B
 75
     2
 76
     1
 98
        1
 10
0.0
 20
0.0
450
        0
451
        0
460
0.0
461
0.0
452
        0
462
0.0
453
        0
470

  0
SPLINE
  5
8D
330
7D
100
AcDbEntity
  8
レイヤー 1
100
AcDbSpline
210
0.0
220
0.0
230
1.0
 70
    11
 71
     3
 72
    53
 73
    49
 74
     0
 42
0.0000000001
 43
0.0000000001
 40
0.0
 40
0.0
 40
0.0
 40
0.0
 40
1.0
 40
1.0
 40
1.0
 40
2.0
 40
2.0
 40
2.0
 40
3.0
 40
3.0
 40
3.0
 40
4.0
 40
4.0
 40
4.0
 40
5.0
 40
5.0
 40
5.0
 40
6.0
 40
6.0
 40
6.0
 40
7.0
 40
7.0
 40
7.0
 40
8.0
 40
8.0
 40
8.0
 40
9.0
 40
9.0
 40
9.0
 40
10.0
 40
10.0
 40
10.0
 40
11.0
 40
11.0
 40
11.0
 40
12.0
 40
12.0
 40
12.0
 40
13.0
 40
13.0
 40
13.0
 40
14.0
 40
14.0
 40
14.0
 40
15.0
 40
15.0
 40
15.0
 40
16.0
 40
16.0
 40
16.0
 40
16.0
 10
9.979408092123204
 20
-2.973117403770609
 30
0.0
 10
9.979408092123204
 20
-2.973117403770609
 30
0.0
 10
10.13116454824846
 20
-2.973117403770609
 30
0.0
 10
10.13116454824846
 20
-2.973117403770609
 30
0.0
 10
10.13116454824846
 20
-2.973117403770609
 30
0.0
 10
10.13116454824846
 20
-3.17637803740035
 30
0.0
 10
10.13116454824846
 20
-3.17637803740035
 30
0.0
 10
10.16906059858621
 20
-3.10592583472699
 30
0.0
 10
10.21660291628265
 20
-3.050287542640206
 30
0.0
 10
10.27344699178928
 20
-3.009635415914257
 30
0.0
 10
10.33046332207016
 20
-2.968983289188309
 30
0.0
 10
10.38954670964219
 20
-2.948657225825335
 30
0.0
 10
10.45104166405391
 20
-2.948657225825335
 30
0.0
 10
10.46723361283458
 20
-2.948657225825335
 30
0.0
 10
10.48256428774394
 20
-2.94969075447091
 30
0.0
 10
10.49703368878199
 20
-2.951413302213535
 30
0.0
 10
10.51150308982004
 20
-2.953308104730423
 30
0.0
 10
10.5268337647294
 20
-2.95589192634436
 30
0.0
 10
10.54319796828434
 20
-2.959509276603872
 30
0.0
 10
10.54319796828434
 20
-2.959509276603872
 30
0.0
 10
10.52149386672726
 20
-3.10592583472699
 30
0.0
 10
10.52149386672726
 20
-3.10592583472699
 30
0.0
 10
10.50702446568921
 20
-3.102308484467478
 30
0.0
 10
10.49169379077985
 20
-3.099552408079278
 30
0.0
 10
10.47532958722491
 20
-3.097829860336653
 30
0.0
 10
10.45913763844424
 20
-3.095935057819766
 30
0.0
 10
10.44380696353488
 20
-3.095073783948453
 30
0.0
 10
10.42933756249683
 20
-3.095073783948453
 30
0.0
 10
10.37507730860415
 20
-3.095073783948453
 30
0.0
 10
10.32495116929376
 20
-3.110921223180603
 30
0.0
 10
10.27895914456568
 20
-3.142443846870639
 30
0.0
 10
10.23279486506333
 20
-3.174138725334937
 30
0.0
 10
10.19713812679099
 20
-3.213412813866785
 30
0.0
 10
10.1718166749744
 20
-3.260438367240446
 30
0.0
 10
10.15924207645324
 20
-3.281970214023257
 30
0.0
 10
10.14925129954602
 20
-3.305569118097218
 30
0.0
 10
10.14201659902699
 20
-3.330890569913805
 30
0.0
 10
10.13478189850797
 20
-3.356212021730391
 30
0.0
 10
10.13116454824846
 20
-3.381361218772715
 30
0.0
 10
10.13116454824846
 20
-3.406682670589301
 30
0.0
 10
10.13116454824846
 20
-3.406682670589301
 30
0.0
 10
10.13116454824846
 20
-4.366141763231381
 30
0.0
 10
10.13116454824846
 20
-4.366141763231381
 30
0.0
 10
10.13116454824846
 20
-4.366141763231381
 30
0.0
 10
9.979408092123204
 20
-4.366141763231381
 30
0.0
 10
9.979408092123204
 20
-4.366141763231381
 30
0.0
 10
9.979408092123204
 20
-4.366141763231381
 30
0.0
 10
9.979408092123204
 20
-2.973117403770609
 30
0.0
 10
9.979408092123204
 20
-2.973117403770609
 30
0.0
  0
HATCH
  5
8E
330
7D
100
AcDbEntity
  8
レイヤー 1
 62
   250
420
  4078137
440
 33554687
100
AcDbHatch
 10
0.0
 20
0.0
 30
0.0
210
0.0
220
0.0
230
1.0
  2
SOLID
 70
     1
 71
     1
 91
        1
 92
        1
 93
        1
 72
     4
 94
        3
 73
     0
 74
     0
 95
       53
 96
       49
 40
0.0
 40
0.0
 40
0.0
 40
0.0
 40
1.0
 40
1.0
 40
1.0
 40
2.0
 40
2.0
 40
2.0
 40
3.0
 40
3.0
 40
3.0
 40
4.0
 40
4.0
 40
4.0
 40
5.0
 40
5.0
 40
5.0
 40
6.0
 40
6.0
 40
6.0
 40
7.0
 40
7.0
 40
7.0
 40
8.0
 40
8.0
 40
8.0
 40
9.0
 40
9.0
 40
9.0
 40
10.0
 40
10.0
 40
10.0
 40
11.0
 40
11.0
 40
11.0
 40
12.0
 40
12.0
 40
12.0
 40
13.0
 40
13.0
 40
13.0
 40
14.0
 40
14.0
 40
14.0
 40
15.0
 40
15.0
 40
15.0
 40
16.0
 40
16.0
 40
16.0
 40
16.0
 10
9.979408092123204
 20
-2.973117403770609
 10
9.979408092123204
 20
-2.973117403770609
 10
10.13116454824846
 20
-2.973117403770609
 10
10.13116454824846
 20
-2.973117403770609
 10
10.13116454824846
 20
-2.973117403770609
 10
10.13116454824846
 20
-3.17637803740035
 10
10.13116454824846
 20
-3.17637803740035
 10
10.16906059858621
 20
-3.10592583472699
 10
10.21660291628265
 20
-3.050287542640206
 10
10.27344699178928
 20
-3.009635415914257
 10
10.33046332207016
 20
-2.968983289188309
 10
10.38954670964219
 20
-2.948657225825335
 10
10.45104166405391
 20
-2.948657225825335
 10
10.46723361283458
 20
-2.948657225825335
 10
10.48256428774394
 20
-2.94969075447091
 10
10.49703368878199
 20
-2.951413302213535
 10
10.51150308982004
 20
-2.953308104730423
 10
10.5268337647294
 20
-2.95589192634436
 10
10.54319796828434
 20
-2.959509276603872
 10
10.54319796828434
 20
-2.959509276603872
 10
10.52149386672726
 20
-3.10592583472699
 10
10.52149386672726
 20
-3.10592583472699
 10
10.50702446568921
 20
-3.102308484467478
 10
10.49169379077985
 20
-3.099552408079278
 10
10.47532958722491
 20
-3.097829860336653
 10
10.45913763844424
 20
-3.095935057819766
 10
10.44380696353488
 20
-3.095073783948453
 10
10.42933756249683
 20
-3.095073783948453
 10
10.37507730860415
 20
-3.095073783948453
 10
10.32495116929376
 20
-3.110921223180603
 10
10.27895914456568
 20
-3.142443846870639
 10
10.23279486506333
 20
-3.174138725334937
 10
10.19713812679099
 20
-3.213412813866785
 10
10.1718166749744
 20
-3.260438367240446
 10
10.15924207645324
 20
-3.281970214023257
 10
10.14925129954602
 20
-3.305569118097218
 10
10.14201659902699
 20
-3.330890569913805
 10
10.13478189850797
 20
-3.356212021730391
 10
10.13116454824846
 20
-3.381361218772715
 10
10.13116454824846
 20
-3.406682670589301
 10
10.13116454824846
 20
-3.406682670589301
 10
10.13116454824846
 20
-4.366141763231381
 10
10.13116454824846
 20
-4.366141763231381
 10
10.13116454824846
 20
-4.366141763231381
 10
9.979408092123204
 20
-4.366141763231381
 10
9.979408092123204
 20
-4.366141763231381
 10
9.979408092123204
 20
-4.366141763231381
 10
9.979408092123204
 20
-2.973117403770609
 10
9.979408092123204
 20
-2.973117403770609
 97
        0
 97
        1
330
8D
 75
     2
 76
     1
 98
        1
 10
0.0
 20
0.0
450
        0
451
        0
460
0.0
461
0.0
452
        0
462
0.0
453
        0
470

  0
SPLINE
  5
8F
330
7D
100
AcDbEntity
  8
レイヤー 1
100
AcDbSpline
210
0.0
220
0.0
230
1.0
 70
    11
 71
     3
 72
    26
 73
    22
 74
     0
 42
0.0000000001
 43
0.0000000001
 40
0.0
 40
0.0
 40
0.0
 40
0.0
 40
1.0
 40
1.0
 40
1.0
 40
2.0
 40
2.0
 40
2.0
 40
3.0
 40
3.0
 40
3.0
 40
4.0
 40
4.0
 40
4.0
 40
5.0
 40
5.0
 40
5.0
 40
6.0
 40
6.0
 40
6.0
 40
7.0
 40
7.0
 40
7.0
 40
7.0
 10
11.17451171595637
 20
-4.208873154329726
 30
0.0
 10
11.17451171595637
 20
-4.208873154329726
 30
0.0
 10
11.51333685693069
 20
-2.973117403770609
 30
0.0
 10
11.51333685693069
 20
-2.973117403770609
 30
0.0
 10
11.51333685693069
 20
-2.973117403770609
 30
0.0
 10
11.67594536383449
 20
-2.973117403770609
 30
0.0
 10
11.67594536383449
 20
-2.973117403770609
 30
0.0
 10
11.67594536383449
 20
-2.973117403770609
 30
0.0
 10
11.25323214779433
 20
-4.366141763231381
 30
0.0
 10
11.25323214779433
 20
-4.366141763231381
 30
0.0
 10
11.25323214779433
 20
-4.366141763231381
 30
0.0
 10
11.09320746250447
 20
-4.366141763231381
 30
0.0
 10
11.09320746250447
 20
-4.366141763231381
 30
0.0
 10
11.09320746250447
 20
-4.366141763231381
 30
0.0
 10
10.67049424646432
 20
-2.973117403770609
 30
0.0
 10
10.67049424646432
 20
-2.973117403770609
 30
0.0
 10
10.67049424646432
 20
-2.973117403770609
 30
0.0
 10
10.83844265137025
 20
-2.973117403770609
 30
0.0
 10
10.83844265137025
 20
-2.973117403770609
 30
0.0
 10
10.83844265137025
 20
-2.973117403770609
 30
0.0
 10
11.17451171595637
 20
-4.208873154329726
 30
0.0
 10
11.17451171595637
 20
-4.208873154329726
 30
0.0
  0
HATCH
  5
90
330
7D
100
AcDbEntity
  8
レイヤー 1
 62
   250
420
  4078137
440
 33554687
100
AcDbHatch
 10
0.0
 20
0.0
 30
0.0
210
0.0
220
0.0
230
1.0
  2
SOLID
 70
     1
 71
     1
 91
        1
 92
        1
 93
        1
 72
     4
 94
        3
 73
     0
 74
     0
 95
       26
 96
       22
 40
0.0
 40
0.0
 40
0.0
 40
0.0
 40
1.0
 40
1.0
 40
1.0
 40
2.0
 40
2.0
 40
2.0
 40
3.0
 40
3.0
 40
3.0
 40
4.0
 40
4.0
 40
4.0
 40
5.0
 40
5.0
 40
5.0
 40
6.0
 40
6.0
 40
6.0
 40
7.0
 40
7.0
 40
7.0
 40
7.0
 10
11.17451171595637
 20
-4.208873154329726
 10
11.17451171595637
 20
-4.208873154329726
 10
11.51333685693069
 20
-2.973117403770609
 10
11.51333685693069
 20
-2.973117403770609
 10
11.51333685693069
 20
-2.973117403770609
 10
11.67594536383449
 20
-2.973117403770609
 10
11.67594536383449
 20
-2.973117403770609
 10
11.67594536383449
 20
-2.973117403770609
 10
11.25323214779433
 20
-4.366141763231381
 10
11.25323214779433
 20
-4.366141763231381
 10
11.25323214779433
 20
-4.366141763231381
 10
11.09320746250447
 20
-4.366141763231381
 10
11.09320746250447
 20
-4.366141763231381
 10
11.09320746250447
 20
-4.366141763231381
 10
10.67049424646432
 20
-2.973117403770609
 10
10.67049424646432
 20
-2.973117403770609
 10
10.67049424646432
 20
-2.973117403770609
 10
10.83844265137025
 20
-2.973117403770609
 10
10.83844265137025
 20
-2.973117403770609
 10
10.83844265137025
 20
-2.973117403770609
 10
11.17451171595637
 20
-4.208873154329726
 10
11.17451171595637
 20
-4.208873154329726
 97
        0
 97
        1
330
8F
 75
     2
 76
     1
 98
        1
 10
0.0
 20
0.0
450
        0
451
        0
460
0.0
461
0.0
452
        0
462
0.0
453
        0
470

  0
SPLINE
  5
91
330
7D
100
AcDbEntity
  8
レイヤー 1
100
AcDbSpline
210
0.0
220
0.0
230
1.0
 70
     9
 71
     3
 72
    20
 73
    16
 74
     0
 42
0.0000000001
 43
0.0000000001
 40
0.0
 40
0.0
 40
0.0
 40
0.0
 40
1.0
 40
1.0
 40
1.0
 40
2.0
 40
2.0
 40
2.0
 40
3.0
 40
3.0
 40
3.0
 40
4.0
 40
4.0
 40
4.0
 40
5.0
 40
5.0
 40
5.0
 40
5.0
 10
12.02682833900718
 20
-3.200665960571361
 30
0.0
 10
11.97704670924532
 20
-3.298334417578194
 30
0.0
 10
11.94862467149201
 20
-3.42666422440375
 30
0.0
 10
11.94138997097298
 20
-3.58565538104803
 30
0.0
 10
11.94138997097298
 20
-3.58565538104803
 30
0.0
 10
12.57563204980748
 20
-3.58565538104803
 30
0.0
 10
12.57563204980748
 20
-3.58565538104803
 30
0.0
 10
12.57029215180534
 20
-3.424769421886863
 30
0.0
 10
12.54583197386007
 20
-3.296095105512781
 30
0.0
 10
12.50242377074592
 20
-3.199460177151523
 30
0.0
 10
12.45901556763177
 20
-3.102825248790265
 30
0.0
 10
12.38132866443939
 20
-3.054421657222505
 30
0.0
 10
12.26936306116877
 20
-3.054421657222505
 30
0.0
 10
12.15739745789815
 20
-3.054421657222505
 30
0.0
 10
12.07643771399478
 20
-3.103169758338791
 30
0.0
 10
12.02682833900718
 20
-3.200665960571361
 30
0.0
  0
SPLINE
  5
92
330
7D
100
AcDbEntity
  8
レイヤー 1
100
AcDbSpline
210
0.0
220
0.0
230
1.0
 70
     9
 71
     3
 72
    41
 73
    37
 74
     0
 42
0.0000000001
 43
0.0000000001
 40
0.0
 40
0.0
 40
0.0
 40
0.0
 40
1.0
 40
1.0
 40
1.0
 40
2.0
 40
2.0
 40
2.0
 40
3.0
 40
3.0
 40
3.0
 40
4.0
 40
4.0
 40
4.0
 40
5.0
 40
5.0
 40
5.0
 40
6.0
 40
6.0
 40
6.0
 40
7.0
 40
7.0
 40
7.0
 40
8.0
 40
8.0
 40
8.0
 40
9.0
 40
9.0
 40
9.0
 40
10.0
 40
10.0
 40
10.0
 40
11.0
 40
11.0
 40
11.0
 40
12.0
 40
12.0
 40
12.0
 40
12.0
 10
11.78429361684559
 20
-3.680395506892401
 30
0.0
 10
11.78429361684559
 20
-3.440100096796224
 30
0.0
 10
11.82666829131417
 20
-3.254926214464046
 30
0.0
 10
11.91158989502557
 20
-3.124873859895865
 30
0.0
 10
11.99651149873698
 20
-2.994821505327683
 30
0.0
 10
12.11846787891483
 20
-2.929709200656461
 30
0.0
 10
12.27745903555911
 20
-2.929709200656461
 30
0.0
 10
12.5773545975501
 20
-2.929709200656461
 30
0.0
 10
12.72738850593273
 20
-3.160013833845413
 30
0.0
 10
12.72738850593273
 20
-3.620795354997579
 30
0.0
 10
12.72738850593273
 20
-3.620795354997579
 30
0.0
 10
12.72738850593273
 20
-3.707611761225875
 30
0.0
 10
12.72738850593273
 20
-3.707611761225875
 30
0.0
 10
12.72738850593273
 20
-3.707611761225875
 30
0.0
 10
11.93880614935905
 20
-3.707611761225875
 30
0.0
 10
11.93880614935905
 20
-3.707611761225875
 30
0.0
 10
11.93880614935905
 20
-3.886412216910341
 30
0.0
 10
11.96808946098367
 20
-4.026972112708534
 30
0.0
 10
12.02682833900718
 20
-4.12894693907193
 30
0.0
 10
12.08556721703069
 20
-4.231094020209587
 30
0.0
 10
12.16824950867669
 20
-4.282081433391285
 30
0.0
 10
12.27487521394517
 20
-4.282081433391285
 30
0.0
 10
12.43369411581519
 20
-4.282081433391285
 30
0.0
 10
12.5296400250794
 20
-4.188202581418227
 30
0.0
 10
12.56202392264074
 20
-4.000272622697848
 30
0.0
 10
12.56202392264074
 20
-4.000272622697848
 30
0.0
 10
12.71119655715206
 20
-4.000272622697848
 30
0.0
 10
12.71119655715206
 20
-4.000272622697848
 30
0.0
 10
12.6931098058545
 20
-4.133942327525542
 30
0.0
 10
12.64660101680363
 20
-4.235572644340412
 30
0.0
 10
12.57149793522518
 20
-4.305163573142459
 30
0.0
 10
12.49656710842099
 20
-4.374754501944505
 30
0.0
 10
12.39579806547744
 20
-4.409549966345529
 30
0.0
 10
12.26936306116877
 20
-4.409549966345529
 30
0.0
 10
11.94586859510381
 20
-4.409549966345529
 30
0.0
 10
11.78429361684559
 20
-4.166498479861153
 30
0.0
 10
11.78429361684559
 20
-3.680395506892401
 30
0.0
  0
HATCH
  5
93
330
7D
100
AcDbEntity
  8
レイヤー 1
 62
   250
420
  4078137
440
 33554687
100
AcDbHatch
 10
0.0
 20
0.0
 30
0.0
210
0.0
220
0.0
230
1.0
  2
SOLID
 70
     1
 71
     1
 91
        2
 92
        1
 93
        1
 72
     4
 94
        3
 73
     0
 74
     0
 95
       20
 96
       16
 40
0.0
 40
0.0
 40
0.0
 40
0.0
 40
1.0
 40
1.0
 40
1.0
 40
2.0
 40
2.0
 40
2.0
 40
3.0
 40
3.0
 40
3.0
 40
4.0
 40
4.0
 40
4.0
 40
5.0
 40
5.0
 40
5.0
 40
5.0
 10
12.02682833900718
 20
-3.200665960571361
 10
11.97704670924532
 20
-3.298334417578194
 10
11.94862467149201
 20
-3.42666422440375
 10
11.94138997097298
 20
-3.58565538104803
 10
11.94138997097298
 20
-3.58565538104803
 10
12.57563204980748
 20
-3.58565538104803
 10
12.57563204980748
 20
-3.58565538104803
 10
12.57029215180534
 20
-3.424769421886863
 10
12.54583197386007
 20
-3.296095105512781
 10
12.50242377074592
 20
-3.199460177151523
 10
12.45901556763177
 20
-3.102825248790265
 10
12.38132866443939
 20
-3.054421657222505
 10
12.26936306116877
 20
-3.054421657222505
 10
12.15739745789815
 20
-3.054421657222505
 10
12.07643771399478
 20
-3.103169758338791
 10
12.02682833900718
 20
-3.200665960571361
 97
        0
 97
        1
330
91
 92
        1
 93
        1
 72
     4
 94
        3
 73
     0
 74
     0
 95
       41
 96
       37
 40
0.0
 40
0.0
 40
0.0
 40
0.0
 40
1.0
 40
1.0
 40
1.0
 40
2.0
 40
2.0
 40
2.0
 40
3.0
 40
3.0
 40
3.0
 40
4.0
 40
4.0
 40
4.0
 40
5.0
 40
5.0
 40
5.0
 40
6.0
 40
6.0
 40
6.0
 40
7.0
 40
7.0
 40
7.0
 40
8.0
 40
8.0
 40
8.0
 40
9.0
 40
9.0
 40
9.0
 40
10.0
 40
10.0
 40
10.0
 40
11.0
 40
11.0
 40
11.0
 40
12.0
 40
12.0
 40
12.0
 40
12.0
 10
11.78429361684559
 20
-3.680395506892401
 10
11.78429361684559
 20
-3.440100096796224
 10
11.82666829131417
 20
-3.254926214464046
 10
11.91158989502557
 20
-3.124873859895865
 10
11.99651149873698
 20
-2.994821505327683
 10
12.11846787891483
 20
-2.929709200656461
 10
12.27745903555911
 20
-2.929709200656461
 10
12.5773545975501
 20
-2.929709200656461
 10
12.72738850593273
 20
-3.160013833845413
 10
12.72738850593273
 20
-3.620795354997579
 10
12.72738850593273
 20
-3.620795354997579
 10
12.72738850593273
 20
-3.707611761225875
 10
12.72738850593273
 20
-3.707611761225875
 10
12.72738850593273
 20
-3.707611761225875
 10
11.93880614935905
 20
-3.707611761225875
 10
11.93880614935905
 20
-3.707611761225875
 10
11.93880614935905
 20
-3.886412216910341
 10
11.96808946098367
 20
-4.026972112708534
 10
12.02682833900718
 20
-4.12894693907193
 10
12.08556721703069
 20
-4.231094020209587
 10
12.16824950867669
 20
-4.282081433391285
 10
12.27487521394517
 20
-4.282081433391285
 10
12.43369411581519
 20
-4.282081433391285
 10
12.5296400250794
 20
-4.188202581418227
 10
12.56202392264074
 20
-4.000272622697848
 10
12.56202392264074
 20
-4.000272622697848
 10
12.71119655715206
 20
-4.000272622697848
 10
12.71119655715206
 20
-4.000272622697848
 10
12.6931098058545
 20
-4.133942327525542
 10
12.64660101680363
 20
-4.235572644340412
 10
12.57149793522518
 20
-4.305163573142459
 10
12.49656710842099
 20
-4.374754501944505
 10
12.39579806547744
 20
-4.409549966345529
 10
12.26936306116877
 20
-4.409549966345529
 10
11.94586859510381
 20
-4.409549966345529
 10
11.78429361684559
 20
-4.166498479861153
 10
11.78429361684559
 20
-3.680395506892401
 97
        0
 97
        1
330
92
 75
     2
 76
     1
 98
        1
 10
0.0
 20
0.0
450
        0
451
        0
460
0.0
461
0.0
452
        0
462
0.0
453
        0
470

  0
SPLINE
  5
94
330
7D
100
AcDbEntity
  8
レイヤー 1
100
AcDbSpline
210
0.0
220
0.0
230
1.0
 70
     9
 71
     3
 72
    26
 73
    22
 74
     0
 42
0.0000000001
 43
0.0000000001
 40
0.0
 40
0.0
 40
0.0
 40
0.0
 40
1.0
 40
1.0
 40
1.0
 40
2.0
 40
2.0
 40
2.0
 40
3.0
 40
3.0
 40
3.0
 40
4.0
 40
4.0
 40
4.0
 40
5.0
 40
5.0
 40
5.0
 40
6.0
 40
6.0
 40
6.0
 40
7.0
 40
7.0
 40
7.0
 40
7.0
 10
13.12047390079974
 20
-3.669543456113864
 30
0.0
 10
13.12047390079974
 20
-4.07434217563072
 30
0.0
 10
13.23243950407036
 20
-4.276741535389148
 30
0.0
 10
13.4563707106116
 20
-4.276741535389148
 30
0.0
 10
13.55765651787795
 20
-4.276741535389148
 30
0.0
 10
13.63758273313574
 20
-4.232988822726475
 30
0.0
 10
13.69632161115925
 20
-4.145311142626867
 30
0.0
 10
13.75506048918276
 20
-4.057633462527258
 30
0.0
 10
13.78434380080739
 20
-3.937055120543514
 30
0.0
 10
13.78434380080739
 20
-3.783403861901371
 30
0.0
 10
13.78434380080739
 20
-3.783403861901371
 30
0.0
 10
13.78434380080739
 20
-3.558439126714556
 30
0.0
 10
13.78434380080739
 20
-3.558439126714556
 30
0.0
 10
13.78434380080739
 20
-3.403065320329789
 30
0.0
 10
13.75506048918276
 20
-3.281625704474732
 30
0.0
 10
13.69632161115925
 20
-3.193948024375124
 30
0.0
 10
13.63758273313574
 20
-3.106442599049778
 30
0.0
 10
13.55765651787795
 20
-3.062517631612843
 30
0.0
 10
13.4563707106116
 20
-3.062517631612843
 30
0.0
 10
13.23243950407036
 20
-3.062517631612843
 30
0.0
 10
13.12047390079974
 20
-3.26491699137127
 30
0.0
 10
13.12047390079974
 20
-3.669543456113864
 30
0.0
  0
SPLINE
  5
95
330
7D
100
AcDbEntity
  8
レイヤー 1
100
AcDbSpline
210
0.0
220
0.0
230
1.0
 70
     9
 71
     3
 72
    41
 73
    37
 74
     0
 42
0.0000000001
 43
0.0000000001
 40
0.0
 40
0.0
 40
0.0
 40
0.0
 40
1.0
 40
1.0
 40
1.0
 40
2.0
 40
2.0
 40
2.0
 40
3.0
 40
3.0
 40
3.0
 40
4.0
 40
4.0
 40
4.0
 40
5.0
 40
5.0
 40
5.0
 40
6.0
 40
6.0
 40
6.0
 40
7.0
 40
7.0
 40
7.0
 40
8.0
 40
8.0
 40
8.0
 40
9.0
 40
9.0
 40
9.0
 40
10.0
 40
10.0
 40
10.0
 40
11.0
 40
11.0
 40
11.0
 40
12.0
 40
12.0
 40
12.0
 40
12.0
 10
12.95510931750775
 20
-3.675055608890263
 30
0.0
 10
12.95510931750775
 20
-3.4383775490536
 30
0.0
 10
12.99662271810501
 20
-3.254926214464046
 30
0.0
 10
13.07982177407379
 20
-3.124873859895865
 30
0.0
 10
13.16284857526831
 20
-2.994821505327683
 30
0.0
 10
13.27843152879845
 20
-2.929709200656461
 30
0.0
 10
13.42657063466419
 20
-2.929709200656461
 30
0.0
 10
13.50253499011395
 20
-2.929709200656461
 30
0.0
 10
13.57074788072189
 20
-2.950552028342223
 30
0.0
 10
13.63120930648803
 20
-2.992065428939483
 30
0.0
 10
13.69184298702843
 20
-3.033578829536744
 30
0.0
 10
13.7411078524675
 20
-3.092317707560253
 30
0.0
 10
13.77900390280525
 20
-3.168282063010012
 30
0.0
 10
13.77900390280525
 20
-3.168282063010012
 30
0.0
 10
13.77900390280525
 20
-2.431031629166547
 30
0.0
 10
13.77900390280525
 20
-2.431031629166547
 30
0.0
 10
13.77900390280525
 20
-2.431031629166547
 30
0.0
 10
13.9307603589305
 20
-2.431031629166547
 30
0.0
 10
13.9307603589305
 20
-2.431031629166547
 30
0.0
 10
13.9307603589305
 20
-2.431031629166547
 30
0.0
 10
13.9307603589305
 20
-4.366141763231381
 30
0.0
 10
13.9307603589305
 20
-4.366141763231381
 30
0.0
 10
13.9307603589305
 20
-4.366141763231381
 30
0.0
 10
13.77900390280525
 20
-4.366141763231381
 30
0.0
 10
13.77900390280525
 20
-4.366141763231381
 30
0.0
 10
13.77900390280525
 20
-4.366141763231381
 30
0.0
 10
13.77900390280525
 20
-4.16563720598984
 30
0.0
 10
13.77900390280525
 20
-4.16563720598984
 30
0.0
 10
13.69046494883433
 20
-4.328245712893632
 30
0.0
 10
13.5693698425278
 20
-4.409549966345529
 30
0.0
 10
13.41571858388565
 20
-4.409549966345529
 30
0.0
 10
13.26757947801991
 20
-4.409549966345529
 30
0.0
 10
13.1537190722324
 20
-4.345815699868407
 30
0.0
 10
13.07430962129739
 20
-4.218519421688426
 30
0.0
 10
12.99472791558812
 20
-4.091050888734182
 30
0.0
 10
12.95510931750775
 20
-3.910011120984302
 30
0.0
 10
12.95510931750775
 20
-3.675055608890263
 30
0.0
  0
HATCH
  5
96
330
7D
100
AcDbEntity
  8
レイヤー 1
 62
   250
420
  4078137
440
 33554687
100
AcDbHatch
 10
0.0
 20
0.0
 30
0.0
210
0.0
220
0.0
230
1.0
  2
SOLID
 70
     1
 71
     1
 91
        2
 92
        1
 93
        1
 72
     4
 94
        3
 73
     0
 74
     0
 95
       26
 96
       22
 40
0.0
 40
0.0
 40
0.0
 40
0.0
 40
1.0
 40
1.0
 40
1.0
 40
2.0
 40
2.0
 40
2.0
 40
3.0
 40
3.0
 40
3.0
 40
4.0
 40
4.0
 40
4.0
 40
5.0
 40
5.0
 40
5.0
 40
6.0
 40
6.0
 40
6.0
 40
7.0
 40
7.0
 40
7.0
 40
7.0
 10
13.12047390079974
 20
-3.669543456113864
 10
13.12047390079974
 20
-4.07434217563072
 10
13.23243950407036
 20
-4.276741535389148
 10
13.4563707106116
 20
-4.276741535389148
 10
13.55765651787795
 20
-4.276741535389148
 10
13.63758273313574
 20
-4.232988822726475
 10
13.69632161115925
 20
-4.145311142626867
 10
13.75506048918276
 20
-4.057633462527258
 10
13.78434380080739
 20
-3.937055120543514
 10
13.78434380080739
 20
-3.783403861901371
 10
13.78434380080739
 20
-3.783403861901371
 10
13.78434380080739
 20
-3.558439126714556
 10
13.78434380080739
 20
-3.558439126714556
 10
13.78434380080739
 20
-3.403065320329789
 10
13.75506048918276
 20
-3.281625704474732
 10
13.69632161115925
 20
-3.193948024375124
 10
13.63758273313574
 20
-3.106442599049778
 10
13.55765651787795
 20
-3.062517631612843
 10
13.4563707106116
 20
-3.062517631612843
 10
13.23243950407036
 20
-3.062517631612843
 10
13.12047390079974
 20
-3.26491699137127
 10
13.12047390079974
 20
-3.669543456113864
 97
        0
 97
        1
330
94
 92
        1
 93
        1
 72
     4
 94
        3
 73
     0
 74
     0
 95
       41
 96
       37
 40
0.0
 40
0.0
 40
0.0
 40
0.0
 40
1.0
 40
1.0
 40
1.0
 40
2.0
 40
2.0
 40
2.0
 40
3.0
 40
3.0
 40
3.0
 40
4.0
 40
4.0
 40
4.0
 40
5.0
 40
5.0
 40
5.0
 40
6.0
 40
6.0
 40
6.0
 40
7.0
 40
7.0
 40
7.0
 40
8.0
 40
8.0
 40
8.0
 40
9.0
 40
9.0
 40
9.0
 40
10.0
 40
10.0
 40
10.0
 40
11.0
 40
11.0
 40
11.0
 40
12.0
 40
12.0
 40
12.0
 40
12.0
 10
12.95510931750775
 20
-3.675055608890263
 10
12.95510931750775
 20
-3.4383775490536
 10
12.99662271810501
 20
-3.254926214464046
 10
13.07982177407379
 20
-3.124873859895865
 10
13.16284857526831
 20
-2.994821505327683
 10
13.27843152879845
 20
-2.929709200656461
 10
13.42657063466419
 20
-2.929709200656461
 10
13.50253499011395
 20
-2.929709200656461
 10
13.57074788072189
 20
-2.950552028342223
 10
13.63120930648803
 20
-2.992065428939483
 10
13.69184298702843
 20
-3.033578829536744
 10
13.7411078524675
 20
-3.092317707560253
 10
13.77900390280525
 20
-3.168282063010012
 10
13.77900390280525
 20
-3.168282063010012
 10
13.77900390280525
 20
-2.431031629166547
 10
13.77900390280525
 20
-2.431031629166547
 10
13.77900390280525
 20
-2.431031629166547
 10
13.9307603589305
 20
-2.431031629166547
 10
13.9307603589305
 20
-2.431031629166547
 10
13.9307603589305
 20
-2.431031629166547
 10
13.9307603589305
 20
-4.366141763231381
 10
13.9307603589305
 20
-4.366141763231381
 10
13.9307603589305
 20
-4.366141763231381
 10
13.77900390280525
 20
-4.366141763231381
 10
13.77900390280525
 20
-4.366141763231381
 10
13.77900390280525
 20
-4.366141763231381
 10
13.77900390280525
 20
-4.16563720598984
 10
13.77900390280525
 20
-4.16563720598984
 10
13.69046494883433
 20
-4.328245712893632
 10
13.5693698425278
 20
-4.409549966345529
 10
13.41571858388565
 20
-4.409549966345529
 10
13.26757947801991
 20
-4.409549966345529
 10
13.1537190722324
 20
-4.345815699868407
 10
13.07430962129739
 20
-4.218519421688426
 10
12.99472791558812
 20
-4.091050888734182
 10
12.95510931750775
 20
-3.910011120984302
 10
12.95510931750775
 20
-3.675055608890263
 97
        0
 97
        1
330
95
 75
     2
 76
     1
 98
        1
 10
0.0
 20
0.0
450
        0
451
        0
460
0.0
461
0.0
452
        0
462
0.0
453
        0
470

  0
SPLINE
  5
97
330
7D
100
AcDbEntity
  8
レイヤー 1
100
AcDbSpline
210
0.0
220
0.0
230
1.0
 70
    11
 71
     3
 72
    17
 73
    13
 74
     0
 42
0.0000000001
 43
0.0000000001
 40
0.0
 40
0.0
 40
0.0
 40
0.0
 40
1.0
 40
1.0
 40
1.0
 40
2.0
 40
2.0
 40
2.0
 40
3.0
 40
3.0
 40
3.0
 40
4.0
 40
4.0
 40
4.0
 40
4.0
 10
14.77635904578508
 20
-2.973117403770609
 30
0.0
 10
14.77635904578508
 20
-2.973117403770609
 30
0.0
 10
14.92811550191033
 20
-2.973117403770609
 30
0.0
 10
14.92811550191033
 20
-2.973117403770609
 30
0.0
 10
14.92811550191033
 20
-2.973117403770609
 30
0.0
 10
14.92811550191033
 20
-4.366141763231381
 30
0.0
 10
14.92811550191033
 20
-4.366141763231381
 30
0.0
 10
14.92811550191033
 20
-4.366141763231381
 30
0.0
 10
14.77635904578508
 20
-4.366141763231381
 30
0.0
 10
14.77635904578508
 20
-4.366141763231381
 30
0.0
 10
14.77635904578508
 20
-4.366141763231381
 30
0.0
 10
14.77635904578508
 20
-2.973117403770609
 30
0.0
 10
14.77635904578508
 20
-2.973117403770609
 30
0.0
  0
SPLINE
  5
98
330
7D
100
AcDbEntity
  8
レイヤー 1
100
AcDbSpline
210
0.0
220
0.0
230
1.0
 70
    11
 71
     3
 72
    17
 73
    13
 74
     0
 42
0.0000000001
 43
0.0000000001
 40
0.0
 40
0.0
 40
0.0
 40
0.0
 40
1.0
 40
1.0
 40
1.0
 40
2.0
 40
2.0
 40
2.0
 40
3.0
 40
3.0
 40
3.0
 40
4.0
 40
4.0
 40
4.0
 40
4.0
 10
14.77360296939688
 20
-2.431031629166547
 30
0.0
 10
14.77360296939688
 20
-2.431031629166547
 30
0.0
 10
14.93362765468673
 20
-2.431031629166547
 30
0.0
 10
14.93362765468673
 20
-2.431031629166547
 30
0.0
 10
14.93362765468673
 20
-2.431031629166547
 30
0.0
 10
14.93362765468673
 20
-2.69389241469111
 30
0.0
 10
14.93362765468673
 20
-2.69389241469111
 30
0.0
 10
14.93362765468673
 20
-2.69389241469111
 30
0.0
 10
14.77360296939688
 20
-2.69389241469111
 30
0.0
 10
14.77360296939688
 20
-2.69389241469111
 30
0.0
 10
14.77360296939688
 20
-2.69389241469111
 30
0.0
 10
14.77360296939688
 20
-2.431031629166547
 30
0.0
 10
14.77360296939688
 20
-2.431031629166547
 30
0.0
  0
HATCH
  5
99
330
7D
100
AcDbEntity
  8
レイヤー 1
 62
   250
420
  4078137
440
 33554687
100
AcDbHatch
 10
0.0
 20
0.0
 30
0.0
210
0.0
220
0.0
230
1.0
  2
SOLID
 70
     1
 71
     1
 91
        2
 92
        1
 93
        1
 72
     4
 94
        3
 73
     0
 74
     0
 95
       17
 96
       13
 40
0.0
 40
0.0
 40
0.0
 40
0.0
 40
1.0
 40
1.0
 40
1.0
 40
2.0
 40
2.0
 40
2.0
 40
3.0
 40
3.0
 40
3.0
 40
4.0
 40
4.0
 40
4.0
 40
4.0
 10
14.77635904578508
 20
-2.973117403770609
 10
14.77635904578508
 20
-2.973117403770609
 10
14.92811550191033
 20
-2.973117403770609
 10
14.92811550191033
 20
-2.973117403770609
 10
14.92811550191033
 20
-2.973117403770609
 10
14.92811550191033
 20
-4.366141763231381
 10
14.92811550191033
 20
-4.366141763231381
 10
14.92811550191033
 20
-4.366141763231381
 10
14.77635904578508
 20
-4.366141763231381
 10
14.77635904578508
 20
-4.366141763231381
 10
14.77635904578508
 20
-4.366141763231381
 10
14.77635904578508
 20
-2.973117403770609
 10
14.77635904578508
 20
-2.973117403770609
 97
        0
 97
        1
330
97
 92
        1
 93
        1
 72
     4
 94
        3
 73
     0
 74
     0
 95
       17
 96
       13
 40
0.0
 40
0.0
 40
0.0
 40
0.0
 40
1.0
 40
1.0
 40
1.0
 40
2.0
 40
2.0
 40
2.0
 40
3.0
 40
3.0
 40
3.0
 40
4.0
 40
4.0
 40
4.0
 40
4.0
 10
14.77360296939688
 20
-2.431031629166547
 10
14.77360296939688
 20
-2.431031629166547
 10
14.93362765468673
 20
-2.431031629166547
 10
14.93362765468673
 20
-2.431031629166547
 10
14.93362765468673
 20
-2.431031629166547
 10
14.93362765468673
 20
-2.69389241469111
 10
14.93362765468673
 20
-2.69389241469111
 10
14.93362765468673
 20
-2.69389241469111
 10
14.77360296939688
 20
-2.69389241469111
 10
14.77360296939688
 20
-2.69389241469111
 10
14.77360296939688
 20
-2.69389241469111
 10
14.77360296939688
 20
-2.431031629166547
 10
14.77360296939688
 20
-2.431031629166547
 97
        0
 97
        1
330
98
 75
     2
 76
     1
 98
        1
 10
0.0
 20
0.0
450
        0
451
        0
460
0.0
461
0.0
452
        0
462
0.0
453
        0
470

  0
SPLINE
  5
9A
330
7D
100
AcDbEntity
  8
レイヤー 1
100
AcDbSpline
210
0.0
220
0.0
230
1.0
 70
    11
 71
     3
 72
    56
 73
    52
 74
     0
 42
0.0000000001
 43
0.0000000001
 40
0.0
 40
0.0
 40
0.0
 40
0.0
 40
1.0
 40
1.0
 40
1.0
 40
2.0
 40
2.0
 40
2.0
 40
3.0
 40
3.0
 40
3.0
 40
4.0
 40
4.0
 40
4.0
 40
5.0
 40
5.0
 40
5.0
 40
6.0
 40
6.0
 40
6.0
 40
7.0
 40
7.0
 40
7.0
 40
8.0
 40
8.0
 40
8.0
 40
9.0
 40
9.0
 40
9.0
 40
10.0
 40
10.0
 40
10.0
 40
11.0
 40
11.0
 40
11.0
 40
12.0
 40
12.0
 40
12.0
 40
13.0
 40
13.0
 40
13.0
 40
14.0
 40
14.0
 40
14.0
 40
15.0
 40
15.0
 40
15.0
 40
16.0
 40
16.0
 40
16.0
 40
17.0
 40
17.0
 40
17.0
 40
17.0
 10
15.31293266761274
 20
-2.973117403770609
 30
0.0
 10
15.31293266761274
 20
-2.973117403770609
 30
0.0
 10
15.46468912373799
 20
-2.973117403770609
 30
0.0
 10
15.46468912373799
 20
-2.973117403770609
 30
0.0
 10
15.46468912373799
 20
-2.973117403770609
 30
0.0
 10
15.46468912373799
 20
-3.154673935843276
 30
0.0
 10
15.46468912373799
 20
-3.154673935843276
 30
0.0
 10
15.50981987459477
 20
-3.082499185427292
 30
0.0
 10
15.56683620487565
 20
-3.026860893340507
 30
0.0
 10
15.63539360503212
 20
-2.987931314357183
 30
0.0
 10
15.70412325996286
 20
-2.949173990148123
 30
0.0
 10
15.7764702651531
 20
-2.929709200656461
 30
0.0
 10
15.8522623658286
 20
-2.929709200656461
 30
0.0
 10
15.96784531935873
 20
-2.929709200656461
 30
0.0
 10
16.05862358539507
 20
-2.966743977122897
 30
0.0
 10
16.1245971639376
 20
-3.040813530055769
 30
0.0
 10
16.19057074248013
 20
-3.11488308298864
 30
0.0
 10
16.22364365913853
 20
-3.21789143799761
 30
0.0
 10
16.22364365913853
 20
-3.349838595082679
 30
0.0
 10
16.22364365913853
 20
-3.349838595082679
 30
0.0
 10
16.22364365913853
 20
-4.366141763231381
 30
0.0
 10
16.22364365913853
 20
-4.366141763231381
 30
0.0
 10
16.22364365913853
 20
-4.366141763231381
 30
0.0
 10
16.06913112662508
 20
-4.366141763231381
 30
0.0
 10
16.06913112662508
 20
-4.366141763231381
 30
0.0
 10
16.06913112662508
 20
-4.366141763231381
 30
0.0
 10
16.06913112662508
 20
-3.37412651825369
 30
0.0
 10
16.06913112662508
 20
-3.37412651825369
 30
0.0
 10
16.06913112662508
 20
-3.170004610752637
 30
0.0
 10
15.98420952291367
 20
-3.068029784389242
 30
0.0
 10
15.81436631549085
 20
-3.068029784389242
 30
0.0
 10
15.76372341185768
 20
-3.068029784389242
 30
0.0
 10
15.71411403687008
 20
-3.080087618587616
 30
0.0
 10
15.66519368097953
 20
-3.10454779653289
 30
0.0
 10
15.61644557986325
 20
-3.129007974478164
 30
0.0
 10
15.57493217926599
 20
-3.160013833845413
 30
0.0
 10
15.54065347918775
 20
-3.198082138957424
 30
0.0
 10
15.51705457511379
 20
-3.225126138516635
 30
0.0
 10
15.4986233142677
 20
-3.254064940592733
 30
0.0
 10
15.48501518710097
 20
-3.284726290411457
 30
0.0
 10
15.47157931470849
 20
-3.315559895004443
 30
0.0
 10
15.46468912373799
 20
-3.347082518694479
 30
0.0
 10
15.46468912373799
 20
-3.37963867103009
 30
0.0
 10
15.46468912373799
 20
-3.37963867103009
 30
0.0
 10
15.46468912373799
 20
-4.366141763231381
 30
0.0
 10
15.46468912373799
 20
-4.366141763231381
 30
0.0
 10
15.46468912373799
 20
-4.366141763231381
 30
0.0
 10
15.31293266761274
 20
-4.366141763231381
 30
0.0
 10
15.31293266761274
 20
-4.366141763231381
 30
0.0
 10
15.31293266761274
 20
-4.366141763231381
 30
0.0
 10
15.31293266761274
 20
-2.973117403770609
 30
0.0
 10
15.31293266761274
 20
-2.973117403770609
 30
0.0
  0
HATCH
  5
9B
330
7D
100
AcDbEntity
  8
レイヤー 1
 62
   250
420
  4078137
440
 33554687
100
AcDbHatch
 10
0.0
 20
0.0
 30
0.0
210
0.0
220
0.0
230
1.0
  2
SOLID
 70
     1
 71
     1
 91
        1
 92
        1
 93
        1
 72
     4
 94
        3
 73
     0
 74
     0
 95
       56
 96
       52
 40
0.0
 40
0.0
 40
0.0
 40
0.0
 40
1.0
 40
1.0
 40
1.0
 40
2.0
 40
2.0
 40
2.0
 40
3.0
 40
3.0
 40
3.0
 40
4.0
 40
4.0
 40
4.0
 40
5.0
 40
5.0
 40
5.0
 40
6.0
 40
6.0
 40
6.0
 40
7.0
 40
7.0
 40
7.0
 40
8.0
 40
8.0
 40
8.0
 40
9.0
 40
9.0
 40
9.0
 40
10.0
 40
10.0
 40
10.0
 40
11.0
 40
11.0
 40
11.0
 40
12.0
 40
12.0
 40
12.0
 40
13.0
 40
13.0
 40
13.0
 40
14.0
 40
14.0
 40
14.0
 40
15.0
 40
15.0
 40
15.0
 40
16.0
 40
16.0
 40
16.0
 40
17.0
 40
17.0
 40
17.0
 40
17.0
 10
15.31293266761274
 20
-2.973117403770609
 10
15.31293266761274
 20
-2.973117403770609
 10
15.46468912373799
 20
-2.973117403770609
 10
15.46468912373799
 20
-2.973117403770609
 10
15.46468912373799
 20
-2.973117403770609
 10
15.46468912373799
 20
-3.154673935843276
 10
15.46468912373799
 20
-3.154673935843276
 10
15.50981987459477
 20
-3.082499185427292
 10
15.56683620487565
 20
-3.026860893340507
 10
15.63539360503212
 20
-2.987931314357183
 10
15.70412325996286
 20
-2.949173990148123
 10
15.7764702651531
 20
-2.929709200656461
 10
15.8522623658286
 20
-2.929709200656461
 10
15.96784531935873
 20
-2.929709200656461
 10
16.05862358539507
 20
-2.966743977122897
 10
16.1245971639376
 20
-3.040813530055769
 10
16.19057074248013
 20
-3.11488308298864
 10
16.22364365913853
 20
-3.21789143799761
 10
16.22364365913853
 20
-3.349838595082679
 10
16.22364365913853
 20
-3.349838595082679
 10
16.22364365913853
 20
-4.366141763231381
 10
16.22364365913853
 20
-4.366141763231381
 10
16.22364365913853
 20
-4.366141763231381
 10
16.06913112662508
 20
-4.366141763231381
 10
16.06913112662508
 20
-4.366141763231381
 10
16.06913112662508
 20
-4.366141763231381
 10
16.06913112662508
 20
-3.37412651825369
 10
16.06913112662508
 20
-3.37412651825369
 10
16.06913112662508
 20
-3.170004610752637
 10
15.98420952291367
 20
-3.068029784389242
 10
15.81436631549085
 20
-3.068029784389242
 10
15.76372341185768
 20
-3.068029784389242
 10
15.71411403687008
 20
-3.080087618587616
 10
15.66519368097953
 20
-3.10454779653289
 10
15.61644557986325
 20
-3.129007974478164
 10
15.57493217926599
 20
-3.160013833845413
 10
15.54065347918775
 20
-3.198082138957424
 10
15.51705457511379
 20
-3.225126138516635
 10
15.4986233142677
 20
-3.254064940592733
 10
15.48501518710097
 20
-3.284726290411457
 10
15.47157931470849
 20
-3.315559895004443
 10
15.46468912373799
 20
-3.347082518694479
 10
15.46468912373799
 20
-3.37963867103009
 10
15.46468912373799
 20
-3.37963867103009
 10
15.46468912373799
 20
-4.366141763231381
 10
15.46468912373799
 20
-4.366141763231381
 10
15.46468912373799
 20
-4.366141763231381
 10
15.31293266761274
 20
-4.366141763231381
 10
15.31293266761274
 20
-4.366141763231381
 10
15.31293266761274
 20
-4.366141763231381
 10
15.31293266761274
 20
-2.973117403770609
 10
15.31293266761274
 20
-2.973117403770609
 97
        0
 97
        1
330
9A
 75
     2
 76
     1
 98
        1
 10
0.0
 20
0.0
450
        0
451
        0
460
0.0
461
0.0
452
        0
462
0.0
453
        0
470

  0
SPLINE
  5
9C
330
7D
100
AcDbEntity
  8
レイヤー 1
100
AcDbSpline
210
0.0
220
0.0
230
1.0
 70
     9
 71
     3
 72
    80
 73
    76
 74
     0
 42
0.0000000001
 43
0.0000000001
 40
0.0
 40
0.0
 40
0.0
 40
0.0
 40
1.0
 40
1.0
 40
1.0
 40
2.0
 40
2.0
 40
2.0
 40
3.0
 40
3.0
 40
3.0
 40
4.0
 40
4.0
 40
4.0
 40
5.0
 40
5.0
 40
5.0
 40
6.0
 40
6.0
 40
6.0
 40
7.0
 40
7.0
 40
7.0
 40
8.0
 40
8.0
 40
8.0
 40
9.0
 40
9.0
 40
9.0
 40
10.0
 40
10.0
 40
10.0
 40
11.0
 40
11.0
 40
11.0
 40
12.0
 40
12.0
 40
12.0
 40
13.0
 40
13.0
 40
13.0
 40
14.0
 40
14.0
 40
14.0
 40
15.0
 40
15.0
 40
15.0
 40
16.0
 40
16.0
 40
16.0
 40
17.0
 40
17.0
 40
17.0
 40
18.0
 40
18.0
 40
18.0
 40
19.0
 40
19.0
 40
19.0
 40
20.0
 40
20.0
 40
20.0
 40
21.0
 40
21.0
 40
21.0
 40
22.0
 40
22.0
 40
22.0
 40
23.0
 40
23.0
 40
23.0
 40
24.0
 40
24.0
 40
24.0
 40
25.0
 40
25.0
 40
25.0
 40
25.0
 10
17.19929470056129
 20
-4.011124673476385
 30
0.0
 10
17.19929470056129
 20
-3.931542967767114
 30
0.0
 10
17.18034667539241
 20
-3.870220268129667
 30
0.0
 10
17.14245062505466
 20
-3.826812065015519
 30
0.0
 10
17.10438231994265
 20
-3.783403861901371
 30
0.0
 10
17.04030354391701
 20
-3.749125161823135
 30
0.0
 10
16.9498697874292
 20
-3.723803710006549
 30
0.0
 10
16.9498697874292
 20
-3.723803710006549
 30
0.0
 10
16.81981743286102
 20
-3.688663736057
 30
0.0
 10
16.81981743286102
 20
-3.688663736057
 30
0.0
 10
16.61380072284307
 20
-3.628891329387916
 30
0.0
 10
16.51096462260837
 20
-3.505212401467447
 30
0.0
 10
16.51096462260837
 20
-3.317282442747068
 30
0.0
 10
16.51096462260837
 20
-3.199804686700049
 30
0.0
 10
16.54886067294612
 20
-3.10592583472699
 30
0.0
 10
16.62465277362161
 20
-3.035473632053631
 30
0.0
 10
16.70061712907137
 20
-2.965021429380272
 30
0.0
 10
16.79914685994952
 20
-2.929709200656461
 30
0.0
 10
16.92006971148179
 20
-2.929709200656461
 30
0.0
 10
17.03754746752881
 20
-2.929709200656461
 30
0.0
 10
17.12918700743645
 20
-2.958131238409773
 30
0.0
 10
17.19516058597899
 20
-3.015147568690657
 30
0.0
 10
17.26113416452152
 20
-3.07199164419728
 30
0.0
 10
17.30592040582977
 20
-3.1619086363623
 30
0.0
 10
17.32934705512947
 20
-3.284726290411457
 30
0.0
 10
17.32934705512947
 20
-3.284726290411457
 30
0.0
 10
17.18568657339455
 20
-3.306430391968531
 30
0.0
 10
17.18568657339455
 20
-3.306430391968531
 30
0.0
 10
17.16587727435436
 20
-3.216168890254985
 30
0.0
 10
17.13521592453564
 20
-3.151573349906551
 30
0.0
 10
17.09353026916412
 20
-3.112643770923228
 30
0.0
 10
17.05201686856686
 20
-3.073886446714167
 30
0.0
 10
16.99327799054335
 20
-3.054421657222505
 30
0.0
 10
16.91748588986785
 20
-3.054421657222505
 30
0.0
 10
16.83790418415858
 20
-3.054421657222505
 30
0.0
 10
16.77520344632703
 20
-3.076125758779579
 30
0.0
 10
16.72903916682468
 20
-3.119361707119465
 30
0.0
 10
16.6830471420966
 20
-3.162769910233613
 30
0.0
 10
16.65996500234542
 20
-3.224264864645322
 30
0.0
 10
16.65996500234542
 20
-3.303674315580331
 30
0.0
 10
16.65996500234542
 20
-3.372403970511065
 30
0.0
 10
16.67719047977167
 20
-3.426147460080963
 30
0.0
 10
16.71146917984991
 20
-3.465077039064286
 30
0.0
 10
16.74574787992814
 20
-3.503834363273347
 30
0.0
 10
16.80448675795165
 20
-3.53587375128617
 30
0.0
 10
16.88768581392044
 20
-3.561195203102756
 30
0.0
 10
16.88768581392044
 20
-3.561195203102756
 30
0.0
 10
17.02307806649075
 20
-3.599091253440505
 30
0.0
 10
17.02307806649075
 20
-3.599091253440505
 30
0.0
 10
17.13866102002089
 20
-3.633542208293003
 30
0.0
 10
17.22237684031246
 20
-3.682290309409288
 30
0.0
 10
17.27388101781694
 20
-3.745507811563623
 30
0.0
 10
17.32538519532143
 20
-3.808725313717957
 30
0.0
 10
17.35105115668654
 20
-3.894508191300678
 30
0.0
 10
17.35105115668654
 20
-4.003028699086048
 30
0.0
 10
17.35105115668654
 20
-4.125846353135205
 30
0.0
 10
17.31315510634879
 20
-4.22437608401335
 30
0.0
 10
17.23719075089903
 20
-4.298445636946222
 30
0.0
 10
17.16139865022354
 20
-4.372515189879093
 30
0.0
 10
17.05925156908588
 20
-4.409549966345529
 30
0.0
 10
16.93092176226032
 20
-4.409549966345529
 30
0.0
 10
16.66719970286445
 20
-4.409549966345529
 30
0.0
 10
16.5190605969987
 20
-4.269506834870123
 30
0.0
 10
16.4865044446631
 20
-3.989420571919311
 30
0.0
 10
16.4865044446631
 20
-3.989420571919311
 30
0.0
 10
16.63550482440015
 20
-3.989420571919311
 30
0.0
 10
16.63550482440015
 20
-3.989420571919311
 30
0.0
 10
16.66272107873362
 20
-4.184585231158714
 30
0.0
 10
16.76107855483751
 20
-4.282081433391285
 30
0.0
 10
16.93092176226032
 20
-4.282081433391285
 30
0.0
 10
17.01584336597173
 20
-4.282081433391285
 30
0.0
 10
17.08181694451427
 20
-4.258138019768798
 30
0.0
 10
17.12884249788793
 20
-4.210251192523826
 30
0.0
 10
17.17586805126159
 20
-4.162536620053115
 30
0.0
 10
17.19929470056129
 20
-4.096046277187793
 30
0.0
 10
17.19929470056129
 20
-4.011124673476385
 30
0.0
  0
HATCH
  5
9D
330
7D
100
AcDbEntity
  8
レイヤー 1
 62
   250
420
  4078137
440
 33554687
100
AcDbHatch
 10
0.0
 20
0.0
 30
0.0
210
0.0
220
0.0
230
1.0
  2
SOLID
 70
     1
 71
     1
 91
        1
 92
        1
 93
        1
 72
     4
 94
        3
 73
     0
 74
     0
 95
       80
 96
       76
 40
0.0
 40
0.0
 40
0.0
 40
0.0
 40
1.0
 40
1.0
 40
1.0
 40
2.0
 40
2.0
 40
2.0
 40
3.0
 40
3.0
 40
3.0
 40
4.0
 40
4.0
 40
4.0
 40
5.0
 40
5.0
 40
5.0
 40
6.0
 40
6.0
 40
6.0
 40
7.0
 40
7.0
 40
7.0
 40
8.0
 40
8.0
 40
8.0
 40
9.0
 40
9.0
 40
9.0
 40
10.0
 40
10.0
 40
10.0
 40
11.0
 40
11.0
 40
11.0
 40
12.0
 40
12.0
 40
12.0
 40
13.0
 40
13.0
 40
13.0
 40
14.0
 40
14.0
 40
14.0
 40
15.0
 40
15.0
 40
15.0
 40
16.0
 40
16.0
 40
16.0
 40
17.0
 40
17.0
 40
17.0
 40
18.0
 40
18.0
 40
18.0
 40
19.0
 40
19.0
 40
19.0
 40
20.0
 40
20.0
 40
20.0
 40
21.0
 40
21.0
 40
21.0
 40
22.0
 40
22.0
 40
22.0
 40
23.0
 40
23.0
 40
23.0
 40
24.0
 40
24.0
 40
24.0
 40
25.0
 40
25.0
 40
25.0
 40
25.0
 10
17.19929470056129
 20
-4.011124673476385
 10
17.19929470056129
 20
-3.931542967767114
 10
17.18034667539241
 20
-3.870220268129667
 10
17.14245062505466
 20
-3.826812065015519
 10
17.10438231994265
 20
-3.783403861901371
 10
17.04030354391701
 20
-3.749125161823135
 10
16.9498697874292
 20
-3.723803710006549
 10
16.9498697874292
 20
-3.723803710006549
 10
16.81981743286102
 20
-3.688663736057
 10
16.81981743286102
 20
-3.688663736057
 10
16.61380072284307
 20
-3.628891329387916
 10
16.51096462260837
 20
-3.505212401467447
 10
16.51096462260837
 20
-3.317282442747068
 10
16.51096462260837
 20
-3.199804686700049
 10
16.54886067294612
 20
-3.10592583472699
 10
16.62465277362161
 20
-3.035473632053631
 10
16.70061712907137
 20
-2.965021429380272
 10
16.79914685994952
 20
-2.929709200656461
 10
16.92006971148179
 20
-2.929709200656461
 10
17.03754746752881
 20
-2.929709200656461
 10
17.12918700743645
 20
-2.958131238409773
 10
17.19516058597899
 20
-3.015147568690657
 10
17.26113416452152
 20
-3.07199164419728
 10
17.30592040582977
 20
-3.1619086363623
 10
17.32934705512947
 20
-3.284726290411457
 10
17.32934705512947
 20
-3.284726290411457
 10
17.18568657339455
 20
-3.306430391968531
 10
17.18568657339455
 20
-3.306430391968531
 10
17.16587727435436
 20
-3.216168890254985
 10
17.13521592453564
 20
-3.151573349906551
 10
17.09353026916412
 20
-3.112643770923228
 10
17.05201686856686
 20
-3.073886446714167
 10
16.99327799054335
 20
-3.054421657222505
 10
16.91748588986785
 20
-3.054421657222505
 10
16.83790418415858
 20
-3.054421657222505
 10
16.77520344632703
 20
-3.076125758779579
 10
16.72903916682468
 20
-3.119361707119465
 10
16.6830471420966
 20
-3.162769910233613
 10
16.65996500234542
 20
-3.224264864645322
 10
16.65996500234542
 20
-3.303674315580331
 10
16.65996500234542
 20
-3.372403970511065
 10
16.67719047977167
 20
-3.426147460080963
 10
16.71146917984991
 20
-3.465077039064286
 10
16.74574787992814
 20
-3.503834363273347
 10
16.80448675795165
 20
-3.53587375128617
 10
16.88768581392044
 20
-3.561195203102756
 10
16.88768581392044
 20
-3.561195203102756
 10
17.02307806649075
 20
-3.599091253440505
 10
17.02307806649075
 20
-3.599091253440505
 10
17.13866102002089
 20
-3.633542208293003
 10
17.22237684031246
 20
-3.682290309409288
 10
17.27388101781694
 20
-3.745507811563623
 10
17.32538519532143
 20
-3.808725313717957
 10
17.35105115668654
 20
-3.894508191300678
 10
17.35105115668654
 20
-4.003028699086048
 10
17.35105115668654
 20
-4.125846353135205
 10
17.31315510634879
 20
-4.22437608401335
 10
17.23719075089903
 20
-4.298445636946222
 10
17.16139865022354
 20
-4.372515189879093
 10
17.05925156908588
 20
-4.409549966345529
 10
16.93092176226032
 20
-4.409549966345529
 10
16.66719970286445
 20
-4.409549966345529
 10
16.5190605969987
 20
-4.269506834870123
 10
16.4865044446631
 20
-3.989420571919311
 10
16.4865044446631
 20
-3.989420571919311
 10
16.63550482440015
 20
-3.989420571919311
 10
16.63550482440015
 20
-3.989420571919311
 10
16.66272107873362
 20
-4.184585231158714
 10
16.76107855483751
 20
-4.282081433391285
 10
16.93092176226032
 20
-4.282081433391285
 10
17.01584336597173
 20
-4.282081433391285
 10
17.08181694451427
 20
-4.258138019768798
 10
17.12884249788793
 20
-4.210251192523826
 10
17.17586805126159
 20
-4.162536620053115
 10
17.19929470056129
 20
-4.096046277187793
 10
17.19929470056129
 20
-4.011124673476385
 97
        0
 97
        1
330
9C
 75
     2
 76
     1
 98
        1
 10
0.0
 20
0.0
450
        0
451
        0
460
0.0
461
0.0
452
        0
462
0.0
453
        0
470

  0
SPLINE
  5
9E
330
7D
100
AcDbEntity
  8
レイヤー 1
100
AcDbSpline
210
0.0
220
0.0
230
1.0
 70
     9
 71
     3
 72
    56
 73
    52
 74
     0
 42
0.0000000001
 43
0.0000000001
 40
0.0
 40
0.0
 40
0.0
 40
0.0
 40
1.0
 40
1.0
 40
1.0
 40
2.0
 40
2.0
 40
2.0
 40
3.0
 40
3.0
 40
3.0
 40
4.0
 40
4.0
 40
4.0
 40
5.0
 40
5.0
 40
5.0
 40
6.0
 40
6.0
 40
6.0
 40
7.0
 40
7.0
 40
7.0
 40
8.0
 40
8.0
 40
8.0
 40
9.0
 40
9.0
 40
9.0
 40
10.0
 40
10.0
 40
10.0
 40
11.0
 40
11.0
 40
11.0
 40
12.0
 40
12.0
 40
12.0
 40
13.0
 40
13.0
 40
13.0
 40
14.0
 40
14.0
 40
14.0
 40
15.0
 40
15.0
 40
15.0
 40
16.0
 40
16.0
 40
16.0
 40
17.0
 40
17.0
 40
17.0
 40
17.0
 10
17.64095594177032
 20
-4.030072698645259
 30
0.0
 10
17.64095594177032
 20
-4.030072698645259
 30
0.0
 10
17.64095594177032
 20
-3.097829860336653
 30
0.0
 10
17.64095594177032
 20
-3.097829860336653
 30
0.0
 10
17.64095594177032
 20
-3.097829860336653
 30
0.0
 10
17.46473930769979
 20
-3.097829860336653
 30
0.0
 10
17.46473930769979
 20
-3.097829860336653
 30
0.0
 10
17.46473930769979
 20
-3.097829860336653
 30
0.0
 10
17.46473930769979
 20
-2.973117403770609
 30
0.0
 10
17.46473930769979
 20
-2.973117403770609
 30
0.0
 10
17.46473930769979
 20
-2.973117403770609
 30
0.0
 10
17.64095594177032
 20
-2.973117403770609
 30
0.0
 10
17.64095594177032
 20
-2.973117403770609
 30
0.0
 10
17.64095594177032
 20
-2.973117403770609
 30
0.0
 10
17.64095594177032
 20
-2.588300238068202
 30
0.0
 10
17.64095594177032
 20
-2.588300238068202
 30
0.0
 10
17.64095594177032
 20
-2.588300238068202
 30
0.0
 10
17.79271239789557
 20
-2.588300238068202
 30
0.0
 10
17.79271239789557
 20
-2.588300238068202
 30
0.0
 10
17.79271239789557
 20
-2.588300238068202
 30
0.0
 10
17.79271239789557
 20
-2.973117403770609
 30
0.0
 10
17.79271239789557
 20
-2.973117403770609
 30
0.0
 10
17.79271239789557
 20
-2.973117403770609
 30
0.0
 10
18.09622531014608
 20
-2.973117403770609
 30
0.0
 10
18.09622531014608
 20
-2.973117403770609
 30
0.0
 10
18.09622531014608
 20
-2.973117403770609
 30
0.0
 10
18.09622531014608
 20
-3.097829860336653
 30
0.0
 10
18.09622531014608
 20
-3.097829860336653
 30
0.0
 10
18.09622531014608
 20
-3.097829860336653
 30
0.0
 10
17.79271239789557
 20
-3.097829860336653
 30
0.0
 10
17.79271239789557
 20
-3.097829860336653
 30
0.0
 10
17.79271239789557
 20
-3.097829860336653
 30
0.0
 10
17.79271239789557
 20
-4.040924749423797
 30
0.0
 10
17.79271239789557
 20
-4.040924749423797
 30
0.0
 10
17.79271239789557
 20
-4.190958657806427
 30
0.0
 10
17.84783392565957
 20
-4.26588948461061
 30
0.0
 10
17.95807698118756
 20
-4.26588948461061
 30
0.0
 10
18.00320773204434
 20
-4.26588948461061
 30
0.0
 10
18.04833848290111
 20
-4.255037433832074
 30
0.0
 10
18.09346923375788
 20
-4.233333332275
 30
0.0
 10
18.09346923375788
 20
-4.233333332275
 30
0.0
 10
18.12326930970529
 20
-4.349949814450707
 30
0.0
 10
18.12326930970529
 20
-4.349949814450707
 30
0.0
 10
18.05832925980833
 20
-4.38061116426943
 30
0.0
 10
17.9923556812658
 20
-4.395941839178792
 30
0.0
 10
17.92552082885195
 20
-4.395941839178792
 30
0.0
 10
17.83336452462152
 20
-4.395941839178792
 30
0.0
 10
17.76291232194816
 20
-4.364419215488756
 30
0.0
 10
17.71416422083187
 20
-4.301029458560159
 30
0.0
 10
17.66524386494133
 20
-4.237811956405825
 30
0.0
 10
17.64095594177032
 20
-4.147550454692279
 30
0.0
 10
17.64095594177032
 20
-4.030072698645259
 30
0.0
  0
HATCH
  5
9F
330
7D
100
AcDbEntity
  8
レイヤー 1
 62
   250
420
  4078137
440
 33554687
100
AcDbHatch
 10
0.0
 20
0.0
 30
0.0
210
0.0
220
0.0
230
1.0
  2
SOLID
 70
     1
 71
     1
 91
        1
 92
        1
 93
        1
 72
     4
 94
        3
 73
     0
 74
     0
 95
       56
 96
       52
 40
0.0
 40
0.0
 40
0.0
 40
0.0
 40
1.0
 40
1.0
 40
1.0
 40
2.0
 40
2.0
 40
2.0
 40
3.0
 40
3.0
 40
3.0
 40
4.0
 40
4.0
 40
4.0
 40
5.0
 40
5.0
 40
5.0
 40
6.0
 40
6.0
 40
6.0
 40
7.0
 40
7.0
 40
7.0
 40
8.0
 40
8.0
 40
8.0
 40
9.0
 40
9.0
 40
9.0
 40
10.0
 40
10.0
 40
10.0
 40
11.0
 40
11.0
 40
11.0
 40
12.0
 40
12.0
 40
12.0
 40
13.0
 40
13.0
 40
13.0
 40
14.0
 40
14.0
 40
14.0
 40
15.0
 40
15.0
 40
15.0
 40
16.0
 40
16.0
 40
16.0
 40
17.0
 40
17.0
 40
17.0
 40
17.0
 10
17.64095594177032
 20
-4.030072698645259
 10
17.64095594177032
 20
-4.030072698645259
 10
17.64095594177032
 20
-3.097829860336653
 10
17.64095594177032
 20
-3.097829860336653
 10
17.64095594177032
 20
-3.097829860336653
 10
17.46473930769979
 20
-3.097829860336653
 10
17.46473930769979
 20
-3.097829860336653
 10
17.46473930769979
 20
-3.097829860336653
 10
17.46473930769979
 20
-2.973117403770609
 10
17.46473930769979
 20
-2.973117403770609
 10
17.46473930769979
 20
-2.973117403770609
 10
17.64095594177032
 20
-2.973117403770609
 10
17.64095594177032
 20
-2.973117403770609
 10
17.64095594177032
 20
-2.973117403770609
 10
17.64095594177032
 20
-2.588300238068202
 10
17.64095594177032
 20
-2.588300238068202
 10
17.64095594177032
 20
-2.588300238068202
 10
17.79271239789557
 20
-2.588300238068202
 10
17.79271239789557
 20
-2.588300238068202
 10
17.79271239789557
 20
-2.588300238068202
 10
17.79271239789557
 20
-2.973117403770609
 10
17.79271239789557
 20
-2.973117403770609
 10
17.79271239789557
 20
-2.973117403770609
 10
18.09622531014608
 20
-2.973117403770609
 10
18.09622531014608
 20
-2.973117403770609
 10
18.09622531014608
 20
-2.973117403770609
 10
18.09622531014608
 20
-3.097829860336653
 10
18.09622531014608
 20
-3.097829860336653
 10
18.09622531014608
 20
-3.097829860336653
 10
17.79271239789557
 20
-3.097829860336653
 10
17.79271239789557
 20
-3.097829860336653
 10
17.79271239789557
 20
-3.097829860336653
 10
17.79271239789557
 20
-4.040924749423797
 10
17.79271239789557
 20
-4.040924749423797
 10
17.79271239789557
 20
-4.190958657806427
 10
17.84783392565957
 20
-4.26588948461061
 10
17.95807698118756
 20
-4.26588948461061
 10
18.00320773204434
 20
-4.26588948461061
 10
18.04833848290111
 20
-4.255037433832074
 10
18.09346923375788
 20
-4.233333332275
 10
18.09346923375788
 20
-4.233333332275
 10
18.12326930970529
 20
-4.349949814450707
 10
18.12326930970529
 20
-4.349949814450707
 10
18.05832925980833
 20
-4.38061116426943
 10
17.9923556812658
 20
-4.395941839178792
 10
17.92552082885195
 20
-4.395941839178792
 10
17.83336452462152
 20
-4.395941839178792
 10
17.76291232194816
 20
-4.364419215488756
 10
17.71416422083187
 20
-4.301029458560159
 10
17.66524386494133
 20
-4.237811956405825
 10
17.64095594177032
 20
-4.147550454692279
 10
17.64095594177032
 20
-4.030072698645259
 97
        0
 97
        1
330
9E
 75
     2
 76
     1
 98
        1
 10
0.0
 20
0.0
450
        0
451
        0
460
0.0
461
0.0
452
        0
462
0.0
453
        0
470

  0
SPLINE
  5
A0
330
7D
100
AcDbEntity
  8
レイヤー 1
100
AcDbSpline
210
0.0
220
0.0
230
1.0
 70
     9
 71
     3
 72
    29
 73
    25
 74
     0
 42
0.0000000001
 43
0.0000000001
 40
0.0
 40
0.0
 40
0.0
 40
0.0
 40
1.0
 40
1.0
 40
1.0
 40
2.0
 40
2.0
 40
2.0
 40
3.0
 40
3.0
 40
3.0
 40
4.0
 40
4.0
 40
4.0
 40
5.0
 40
5.0
 40
5.0
 40
6.0
 40
6.0
 40
6.0
 40
7.0
 40
7.0
 40
7.0
 40
8.0
 40
8.0
 40
8.0
 40
8.0
 10
18.43763427273434
 20
-3.978568521140774
 30
0.0
 10
18.43763427273434
 20
-4.070724825371208
 30
0.0
 10
18.45933837429141
 20
-4.142210556690142
 30
0.0
 10
18.50274657740556
 20
-4.192681205549051
 30
0.0
 10
18.54598252574545
 20
-4.243324109182224
 30
0.0
 10
18.60661620628584
 20
-4.268645560998811
 30
0.0
 10
18.68430310947823
 20
-4.268645560998811
 30
0.0
 10
18.74752061163256
 20
-4.268645560998811
 30
0.0
 10
18.80436468713918
 20
-4.251936847895349
 30
0.0
 10
18.85500759077236
 20
-4.218519421688426
 30
0.0
 10
18.90565049440553
 20
-4.185101995481502
 30
0.0
 10
18.94578585680869
 20
-4.140832518496042
 30
0.0
 10
18.9755859327561
 20
-4.085710990732044
 30
0.0
 10
19.00538600870351
 20
-4.030589462968046
 30
0.0
 10
19.02037217406435
 20
-3.970472546750437
 30
0.0
 10
19.02037217406435
 20
-3.905360242079215
 30
0.0
 10
19.02037217406435
 20
-3.905360242079215
 30
0.0
 10
19.02037217406435
 20
-3.620795354997579
 30
0.0
 10
19.02037217406435
 20
-3.620795354997579
 30
0.0
 10
19.02037217406435
 20
-3.620795354997579
 30
0.0
 10
18.83881564199169
 20
-3.631647405776115
 30
0.0
 10
18.83881564199169
 20
-3.631647405776115
 30
0.0
 10
18.57130397756203
 20
-3.651628959590565
 30
0.0
 10
18.43763427273434
 20
-3.767211913120697
 30
0.0
 10
18.43763427273434
 20
-3.978568521140774
 30
0.0
  0
SPLINE
  5
A1
330
7D
100
AcDbEntity
  8
レイヤー 1
100
AcDbSpline
210
0.0
220
0.0
230
1.0
 70
     9
 71
     3
 72
    65
 73
    61
 74
     0
 42
0.0000000001
 43
0.0000000001
 40
0.0
 40
0.0
 40
0.0
 40
0.0
 40
1.0
 40
1.0
 40
1.0
 40
2.0
 40
2.0
 40
2.0
 40
3.0
 40
3.0
 40
3.0
 40
4.0
 40
4.0
 40
4.0
 40
5.0
 40
5.0
 40
5.0
 40
6.0
 40
6.0
 40
6.0
 40
7.0
 40
7.0
 40
7.0
 40
8.0
 40
8.0
 40
8.0
 40
9.0
 40
9.0
 40
9.0
 40
10.0
 40
10.0
 40
10.0
 40
11.0
 40
11.0
 40
11.0
 40
12.0
 40
12.0
 40
12.0
 40
13.0
 40
13.0
 40
13.0
 40
14.0
 40
14.0
 40
14.0
 40
15.0
 40
15.0
 40
15.0
 40
16.0
 40
16.0
 40
16.0
 40
17.0
 40
17.0
 40
17.0
 40
18.0
 40
18.0
 40
18.0
 40
19.0
 40
19.0
 40
19.0
 40
20.0
 40
20.0
 40
20.0
 40
20.0
 10
18.28053791860695
 20
-3.986664495531111
 30
0.0
 10
18.28053791860695
 20
-3.84765489270128
 30
0.0
 10
18.32790798152913
 20
-3.736895072850498
 30
0.0
 10
18.42282036214777
 20
-3.65472954552729
 30
0.0
 10
18.51756048799214
 20
-3.572564018204081
 30
0.0
 10
18.65260823101393
 20
-3.526055229153208
 30
0.0
 10
18.82796359121314
 20
-3.515203178374671
 30
0.0
 10
18.82796359121314
 20
-3.515203178374671
 30
0.0
 10
19.02037217406435
 20
-3.501595051207934
 30
0.0
 10
19.02037217406435
 20
-3.501595051207934
 30
0.0
 10
19.02037217406435
 20
-3.501595051207934
 30
0.0
 10
19.02037217406435
 20
-3.436482746536712
 30
0.0
 10
19.02037217406435
 20
-3.436482746536712
 30
0.0
 10
19.02037217406435
 20
-3.302813041709018
 30
0.0
 10
18.99866807250728
 20
-3.206178113347761
 30
0.0
 10
18.95525986939313
 20
-3.146577961452938
 30
0.0
 10
18.91202392105324
 20
-3.086977809558116
 30
0.0
 10
18.8424329922512
 20
-3.057177733610705
 30
0.0
 10
18.74665933776125
 20
-3.057177733610705
 30
0.0
 10
18.66346028179247
 20
-3.057177733610705
 30
0.0
 10
18.59972601531534
 20
-3.076125758779579
 30
0.0
 10
18.55562879310415
 20
-3.114021809117327
 30
0.0
 10
18.51118706134442
 20
-3.151917859455076
 30
0.0
 10
18.48104247584849
 20
-3.213412813866785
 30
0.0
 10
18.46467827229355
 20
-3.298334417578194
 30
0.0
 10
18.46467827229355
 20
-3.298334417578194
 30
0.0
 10
18.32652994333503
 20
-3.281970214023257
 30
0.0
 10
18.32652994333503
 20
-3.281970214023257
 30
0.0
 10
18.34633924237522
 20
-3.161047362490988
 30
0.0
 10
18.39164224800626
 20
-3.07199164419728
 30
0.0
 10
18.46209445067961
 20
-3.015147568690657
 30
0.0
 10
18.53254665335297
 20
-2.958131238409773
 30
0.0
 10
18.63090412945686
 20
-2.929709200656461
 30
0.0
 10
18.75751138853979
 20
-2.929709200656461
 30
0.0
 10
18.90203314414602
 20
-2.929709200656461
 30
0.0
 10
19.0072808112204
 20
-2.970878091705197
 30
0.0
 10
19.07325438976293
 20
-3.053043619028406
 30
0.0
 10
19.13905571353121
 20
-3.135209146351614
 30
0.0
 10
19.17212863018961
 20
-3.26491699137127
 30
0.0
 10
19.17212863018961
 20
-3.441994899313112
 30
0.0
 10
19.17212863018961
 20
-3.441994899313112
 30
0.0
 10
19.17212863018961
 20
-4.366141763231381
 30
0.0
 10
19.17212863018961
 20
-4.366141763231381
 30
0.0
 10
19.17212863018961
 20
-4.366141763231381
 30
0.0
 10
19.02312825045255
 20
-4.366141763231381
 30
0.0
 10
19.02312825045255
 20
-4.366141763231381
 30
0.0
 10
19.02312825045255
 20
-4.366141763231381
 30
0.0
 10
19.02312825045255
 20
-4.162881129601641
 30
0.0
 10
19.02312825045255
 20
-4.162881129601641
 30
0.0
 10
18.97782524482152
 20
-4.2388454850514
 30
0.0
 10
18.92270371705752
 20
-4.297067598752121
 30
0.0
 10
18.85776366716056
 20
-4.33771972547807
 30
0.0
 10
18.79265136248934
 20
-4.378371852204018
 30
0.0
 10
18.72219915981598
 20
-4.398697915566992
 30
0.0
 10
18.64640705914048
 20
-4.398697915566992
 30
0.0
 10
18.53254665335297
 20
-4.398697915566992
 30
0.0
 10
18.44314642551074
 20
-4.361663139100556
 30
0.0
 10
18.37803412083952
 20
-4.287593586167685
 30
0.0
 10
18.3129218161683
 20
-4.213524033234813
 30
0.0
 10
18.28053791860695
 20
-4.113271754614043
 30
0.0
 10
18.28053791860695
 20
-3.986664495531111
 30
0.0
  0
HATCH
  5
A2
330
7D
100
AcDbEntity
  8
レイヤー 1
 62
   250
420
  4078137
440
 33554687
100
AcDbHatch
 10
0.0
 20
0.0
 30
0.0
210
0.0
220
0.0
230
1.0
  2
SOLID
 70
     1
 71
     1
 91
        2
 92
        1
 93
        1
 72
     4
 94
        3
 73
     0
 74
     0
 95
       29
 96
       25
 40
0.0
 40
0.0
 40
0.0
 40
0.0
 40
1.0
 40
1.0
 40
1.0
 40
2.0
 40
2.0
 40
2.0
 40
3.0
 40
3.0
 40
3.0
 40
4.0
 40
4.0
 40
4.0
 40
5.0
 40
5.0
 40
5.0
 40
6.0
 40
6.0
 40
6.0
 40
7.0
 40
7.0
 40
7.0
 40
8.0
 40
8.0
 40
8.0
 40
8.0
 10
18.43763427273434
 20
-3.978568521140774
 10
18.43763427273434
 20
-4.070724825371208
 10
18.45933837429141
 20
-4.142210556690142
 10
18.50274657740556
 20
-4.192681205549051
 10
18.54598252574545
 20
-4.243324109182224
 10
18.60661620628584
 20
-4.268645560998811
 10
18.68430310947823
 20
-4.268645560998811
 10
18.74752061163256
 20
-4.268645560998811
 10
18.80436468713918
 20
-4.251936847895349
 10
18.85500759077236
 20
-4.218519421688426
 10
18.90565049440553
 20
-4.185101995481502
 10
18.94578585680869
 20
-4.140832518496042
 10
18.9755859327561
 20
-4.085710990732044
 10
19.00538600870351
 20
-4.030589462968046
 10
19.02037217406435
 20
-3.970472546750437
 10
19.02037217406435
 20
-3.905360242079215
 10
19.02037217406435
 20
-3.905360242079215
 10
19.02037217406435
 20
-3.620795354997579
 10
19.02037217406435
 20
-3.620795354997579
 10
19.02037217406435
 20
-3.620795354997579
 10
18.83881564199169
 20
-3.631647405776115
 10
18.83881564199169
 20
-3.631647405776115
 10
18.57130397756203
 20
-3.651628959590565
 10
18.43763427273434
 20
-3.767211913120697
 10
18.43763427273434
 20
-3.978568521140774
 97
        0
 97
        1
330
A0
 92
        1
 93
        1
 72
     4
 94
        3
 73
     0
 74
     0
 95
       65
 96
       61
 40
0.0
 40
0.0
 40
0.0
 40
0.0
 40
1.0
 40
1.0
 40
1.0
 40
2.0
 40
2.0
 40
2.0
 40
3.0
 40
3.0
 40
3.0
 40
4.0
 40
4.0
 40
4.0
 40
5.0
 40
5.0
 40
5.0
 40
6.0
 40
6.0
 40
6.0
 40
7.0
 40
7.0
 40
7.0
 40
8.0
 40
8.0
 40
8.0
 40
9.0
 40
9.0
 40
9.0
 40
10.0
 40
10.0
 40
10.0
 40
11.0
 40
11.0
 40
11.0
 40
12.0
 40
12.0
 40
12.0
 40
13.0
 40
13.0
 40
13.0
 40
14.0
 40
14.0
 40
14.0
 40
15.0
 40
15.0
 40
15.0
 40
16.0
 40
16.0
 40
16.0
 40
17.0
 40
17.0
 40
17.0
 40
18.0
 40
18.0
 40
18.0
 40
19.0
 40
19.0
 40
19.0
 40
20.0
 40
20.0
 40
20.0
 40
20.0
 10
18.28053791860695
 20
-3.986664495531111
 10
18.28053791860695
 20
-3.84765489270128
 10
18.32790798152913
 20
-3.736895072850498
 10
18.42282036214777
 20
-3.65472954552729
 10
18.51756048799214
 20
-3.572564018204081
 10
18.65260823101393
 20
-3.526055229153208
 10
18.82796359121314
 20
-3.515203178374671
 10
18.82796359121314
 20
-3.515203178374671
 10
19.02037217406435
 20
-3.501595051207934
 10
19.02037217406435
 20
-3.501595051207934
 10
19.02037217406435
 20
-3.501595051207934
 10
19.02037217406435
 20
-3.436482746536712
 10
19.02037217406435
 20
-3.436482746536712
 10
19.02037217406435
 20
-3.302813041709018
 10
18.99866807250728
 20
-3.206178113347761
 10
18.95525986939313
 20
-3.146577961452938
 10
18.91202392105324
 20
-3.086977809558116
 10
18.8424329922512
 20
-3.057177733610705
 10
18.74665933776125
 20
-3.057177733610705
 10
18.66346028179247
 20
-3.057177733610705
 10
18.59972601531534
 20
-3.076125758779579
 10
18.55562879310415
 20
-3.114021809117327
 10
18.51118706134442
 20
-3.151917859455076
 10
18.48104247584849
 20
-3.213412813866785
 10
18.46467827229355
 20
-3.298334417578194
 10
18.46467827229355
 20
-3.298334417578194
 10
18.32652994333503
 20
-3.281970214023257
 10
18.32652994333503
 20
-3.281970214023257
 10
18.34633924237522
 20
-3.161047362490988
 10
18.39164224800626
 20
-3.07199164419728
 10
18.46209445067961
 20
-3.015147568690657
 10
18.53254665335297
 20
-2.958131238409773
 10
18.63090412945686
 20
-2.929709200656461
 10
18.75751138853979
 20
-2.929709200656461
 10
18.90203314414602
 20
-2.929709200656461
 10
19.0072808112204
 20
-2.970878091705197
 10
19.07325438976293
 20
-3.053043619028406
 10
19.13905571353121
 20
-3.135209146351614
 10
19.17212863018961
 20
-3.26491699137127
 10
19.17212863018961
 20
-3.441994899313112
 10
19.17212863018961
 20
-3.441994899313112
 10
19.17212863018961
 20
-4.366141763231381
 10
19.17212863018961
 20
-4.366141763231381
 10
19.17212863018961
 20
-4.366141763231381
 10
19.02312825045255
 20
-4.366141763231381
 10
19.02312825045255
 20
-4.366141763231381
 10
19.02312825045255
 20
-4.366141763231381
 10
19.02312825045255
 20
-4.162881129601641
 10
19.02312825045255
 20
-4.162881129601641
 10
18.97782524482152
 20
-4.2388454850514
 10
18.92270371705752
 20
-4.297067598752121
 10
18.85776366716056
 20
-4.33771972547807
 10
18.79265136248934
 20
-4.378371852204018
 10
18.72219915981598
 20
-4.398697915566992
 10
18.64640705914048
 20
-4.398697915566992
 10
18.53254665335297
 20
-4.398697915566992
 10
18.44314642551074
 20
-4.361663139100556
 10
18.37803412083952
 20
-4.287593586167685
 10
18.3129218161683
 20
-4.213524033234813
 10
18.28053791860695
 20
-4.113271754614043
 10
18.28053791860695
 20
-3.986664495531111
 97
        0
 97
        1
330
A1
 75
     2
 76
     1
 98
        1
 10
0.0
 20
0.0
450
        0
451
        0
460
0.0
461
0.0
452
        0
462
0.0
453
        0
470

  0
SPLINE
  5
A3
330
7D
100
AcDbEntity
  8
レイヤー 1
100
AcDbSpline
210
0.0
220
0.0
230
1.0
 70
    11
 71
     3
 72
    17
 73
    13
 74
     0
 42
0.0000000001
 43
0.0000000001
 40
0.0
 40
0.0
 40
0.0
 40
0.0
 40
1.0
 40
1.0
 40
1.0
 40
2.0
 40
2.0
 40
2.0
 40
3.0
 40
3.0
 40
3.0
 40
4.0
 40
4.0
 40
4.0
 40
4.0
 10
19.54609374511347
 20
-2.431031629166547
 30
0.0
 10
19.54609374511347
 20
-2.431031629166547
 30
0.0
 10
19.69785020123873
 20
-2.431031629166547
 30
0.0
 10
19.69785020123873
 20
-2.431031629166547
 30
0.0
 10
19.69785020123873
 20
-2.431031629166547
 30
0.0
 10
19.69785020123873
 20
-4.366141763231381
 30
0.0
 10
19.69785020123873
 20
-4.366141763231381
 30
0.0
 10
19.69785020123873
 20
-4.366141763231381
 30
0.0
 10
19.54609374511347
 20
-4.366141763231381
 30
0.0
 10
19.54609374511347
 20
-4.366141763231381
 30
0.0
 10
19.54609374511347
 20
-4.366141763231381
 30
0.0
 10
19.54609374511347
 20
-2.431031629166547
 30
0.0
 10
19.54609374511347
 20
-2.431031629166547
 30
0.0
  0
HATCH
  5
A4
330
7D
100
AcDbEntity
  8
レイヤー 1
 62
   250
420
  4078137
440
 33554687
100
AcDbHatch
 10
0.0
 20
0.0
 30
0.0
210
0.0
220
0.0
230
1.0
  2
SOLID
 70
     1
 71
     1
 91
        1
 92
        1
 93
        1
 72
     4
 94
        3
 73
     0
 74
     0
 95
       17
 96
       13
 40
0.0
 40
0.0
 40
0.0
 40
0.0
 40
1.0
 40
1.0
 40
1.0
 40
2.0
 40
2.0
 40
2.0
 40
3.0
 40
3.0
 40
3.0
 40
4.0
 40
4.0
 40
4.0
 40
4.0
 10
19.54609374511347
 20
-2.431031629166547
 10
19.54609374511347
 20
-2.431031629166547
 10
19.69785020123873
 20
-2.431031629166547
 10
19.69785020123873
 20
-2.431031629166547
 10
19.69785020123873
 20
-2.431031629166547
 10
19.69785020123873
 20
-4.366141763231381
 10
19.69785020123873
 20
-4.366141763231381
 10
19.69785020123873
 20
-4.366141763231381
 10
19.54609374511347
 20
-4.366141763231381
 10
19.54609374511347
 20
-4.366141763231381
 10
19.54609374511347
 20
-4.366141763231381
 10
19.54609374511347
 20
-2.431031629166547
 10
19.54609374511347
 20
-2.431031629166547
 97
        0
 97
        1
330
A3
 75
     2
 76
     1
 98
        1
 10
0.0
 20
0.0
450
        0
451
        0
460
0.0
461
0.0
452
        0
462
0.0
453
        0
470

  0
SPLINE
  5
A5
330
7D
100
AcDbEntity
  8
レイヤー 1
100
AcDbSpline
210
0.0
220
0.0
230
1.0
 70
    11
 71
     3
 72
    17
 73
    13
 74
     0
 42
0.0000000001
 43
0.0000000001
 40
0.0
 40
0.0
 40
0.0
 40
0.0
 40
1.0
 40
1.0
 40
1.0
 40
2.0
 40
2.0
 40
2.0
 40
3.0
 40
3.0
 40
3.0
 40
4.0
 40
4.0
 40
4.0
 40
4.0
 10
20.0828396217154
 20
-2.431031629166547
 30
0.0
 10
20.0828396217154
 20
-2.431031629166547
 30
0.0
 10
20.23459607784066
 20
-2.431031629166547
 30
0.0
 10
20.23459607784066
 20
-2.431031629166547
 30
0.0
 10
20.23459607784066
 20
-2.431031629166547
 30
0.0
 10
20.23459607784066
 20
-4.366141763231381
 30
0.0
 10
20.23459607784066
 20
-4.366141763231381
 30
0.0
 10
20.23459607784066
 20
-4.366141763231381
 30
0.0
 10
20.0828396217154
 20
-4.366141763231381
 30
0.0
 10
20.0828396217154
 20
-4.366141763231381
 30
0.0
 10
20.0828396217154
 20
-4.366141763231381
 30
0.0
 10
20.0828396217154
 20
-2.431031629166547
 30
0.0
 10
20.0828396217154
 20
-2.431031629166547
 30
0.0
  0
HATCH
  5
A6
330
7D
100
AcDbEntity
  8
レイヤー 1
 62
   250
420
  4078137
440
 33554687
100
AcDbHatch
 10
0.0
 20
0.0
 30
0.0
210
0.0
220
0.0
230
1.0
  2
SOLID
 70
     1
 71
     1
 91
        1
 92
        1
 93
        1
 72
     4
 94
        3
 73
     0
 74
     0
 95
       17
 96
       13
 40
0.0
 40
0.0
 40
0.0
 40
0.0
 40
1.0
 40
1.0
 40
1.0
 40
2.0
 40
2.0
 40
2.0
 40
3.0
 40
3.0
 40
3.0
 40
4.0
 40
4.0
 40
4.0
 40
4.0
 10
20.0828396217154
 20
-2.431031629166547
 10
20.0828396217154
 20
-2.431031629166547
 10
20.23459607784066
 20
-2.431031629166547
 10
20.23459607784066
 20
-2.431031629166547
 10
20.23459607784066
 20
-2.431031629166547
 10
20.23459607784066
 20
-4.366141763231381
 10
20.23459607784066
 20
-4.366141763231381
 10
20.23459607784066
 20
-4.366141763231381
 10
20.0828396217154
 20
-4.366141763231381
 10
20.0828396217154
 20
-4.366141763231381
 10
20.0828396217154
 20
-4.366141763231381
 10
20.0828396217154
 20
-2.431031629166547
 10
20.0828396217154
 20
-2.431031629166547
 97
        0
 97
        1
330
A5
 75
     2
 76
     1
 98
        1
 10
0.0
 20
0.0
450
        0
451
        0
460
0.0
461
0.0
452
        0
462
0.0
453
        0
470

  0
SPLINE
  5
A7
330
7D
100
AcDbEntity
  8
レイヤー 1
100
AcDbSpline
210
0.0
220
0.0
230
1.0
 70
     9
 71
     3
 72
    29
 73
    25
 74
     0
 42
0.0000000001
 43
0.0000000001
 40
0.0
 40
0.0
 40
0.0
 40
0.0
 40
1.0
 40
1.0
 40
1.0
 40
2.0
 40
2.0
 40
2.0
 40
3.0
 40
3.0
 40
3.0
 40
4.0
 40
4.0
 40
4.0
 40
5.0
 40
5.0
 40
5.0
 40
6.0
 40
6.0
 40
6.0
 40
7.0
 40
7.0
 40
7.0
 40
8.0
 40
8.0
 40
8.0
 40
8.0
 10
20.70071749699496
 20
-3.978568521140774
 30
0.0
 10
20.70071749699496
 20
-4.070724825371208
 30
0.0
 10
20.72242159855203
 20
-4.142210556690142
 30
0.0
 10
20.76582980166618
 20
-4.192681205549051
 30
0.0
 10
20.80906575000607
 20
-4.243324109182224
 30
0.0
 10
20.86969943054647
 20
-4.268645560998811
 30
0.0
 10
20.94738633373885
 20
-4.268645560998811
 30
0.0
 10
21.01060383589318
 20
-4.268645560998811
 30
0.0
 10
21.06744791139981
 20
-4.251936847895349
 30
0.0
 10
21.11809081503298
 20
-4.218519421688426
 30
0.0
 10
21.16873371866615
 20
-4.185101995481502
 30
0.0
 10
21.20886908106931
 20
-4.140832518496042
 30
0.0
 10
21.23866915701672
 20
-4.085710990732044
 30
0.0
 10
21.26846923296414
 20
-4.030589462968046
 30
0.0
 10
21.28345539832497
 20
-3.970472546750437
 30
0.0
 10
21.28345539832497
 20
-3.905360242079215
 30
0.0
 10
21.28345539832497
 20
-3.905360242079215
 30
0.0
 10
21.28345539832497
 20
-3.620795354997579
 30
0.0
 10
21.28345539832497
 20
-3.620795354997579
 30
0.0
 10
21.28345539832497
 20
-3.620795354997579
 30
0.0
 10
21.10189886625231
 20
-3.631647405776115
 30
0.0
 10
21.10189886625231
 20
-3.631647405776115
 30
0.0
 10
20.83438720182265
 20
-3.651628959590565
 30
0.0
 10
20.70071749699496
 20
-3.767211913120697
 30
0.0
 10
20.70071749699496
 20
-3.978568521140774
 30
0.0
  0
SPLINE
  5
A8
330
7D
100
AcDbEntity
  8
レイヤー 1
100
AcDbSpline
210
0.0
220
0.0
230
1.0
 70
     9
 71
     3
 72
    65
 73
    61
 74
     0
 42
0.0000000001
 43
0.0000000001
 40
0.0
 40
0.0
 40
0.0
 40
0.0
 40
1.0
 40
1.0
 40
1.0
 40
2.0
 40
2.0
 40
2.0
 40
3.0
 40
3.0
 40
3.0
 40
4.0
 40
4.0
 40
4.0
 40
5.0
 40
5.0
 40
5.0
 40
6.0
 40
6.0
 40
6.0
 40
7.0
 40
7.0
 40
7.0
 40
8.0
 40
8.0
 40
8.0
 40
9.0
 40
9.0
 40
9.0
 40
10.0
 40
10.0
 40
10.0
 40
11.0
 40
11.0
 40
11.0
 40
12.0
 40
12.0
 40
12.0
 40
13.0
 40
13.0
 40
13.0
 40
14.0
 40
14.0
 40
14.0
 40
15.0
 40
15.0
 40
15.0
 40
16.0
 40
16.0
 40
16.0
 40
17.0
 40
17.0
 40
17.0
 40
18.0
 40
18.0
 40
18.0
 40
19.0
 40
19.0
 40
19.0
 40
20.0
 40
20.0
 40
20.0
 40
20.0
 10
20.54362114286757
 20
-3.986664495531111
 30
0.0
 10
20.54362114286757
 20
-3.84765489270128
 30
0.0
 10
20.59099120578975
 20
-3.736895072850498
 30
0.0
 10
20.68590358640839
 20
-3.65472954552729
 30
0.0
 10
20.78064371225276
 20
-3.572564018204081
 30
0.0
 10
20.91569145527455
 20
-3.526055229153208
 30
0.0
 10
21.09104681547377
 20
-3.515203178374671
 30
0.0
 10
21.09104681547377
 20
-3.515203178374671
 30
0.0
 10
21.28345539832497
 20
-3.501595051207934
 30
0.0
 10
21.28345539832497
 20
-3.501595051207934
 30
0.0
 10
21.28345539832497
 20
-3.501595051207934
 30
0.0
 10
21.28345539832497
 20
-3.436482746536712
 30
0.0
 10
21.28345539832497
 20
-3.436482746536712
 30
0.0
 10
21.28345539832497
 20
-3.302813041709018
 30
0.0
 10
21.2617512967679
 20
-3.206178113347761
 30
0.0
 10
21.21834309365375
 20
-3.146577961452938
 30
0.0
 10
21.17510714531386
 20
-3.086977809558116
 30
0.0
 10
21.10551621651182
 20
-3.057177733610705
 30
0.0
 10
21.00974256202187
 20
-3.057177733610705
 30
0.0
 10
20.92654350605309
 20
-3.057177733610705
 30
0.0
 10
20.86280923957597
 20
-3.076125758779579
 30
0.0
 10
20.81871201736477
 20
-3.114021809117327
 30
0.0
 10
20.77427028560505
 20
-3.151917859455076
 30
0.0
 10
20.74412570010911
 20
-3.213412813866785
 30
0.0
 10
20.72776149655418
 20
-3.298334417578194
 30
0.0
 10
20.72776149655418
 20
-3.298334417578194
 30
0.0
 10
20.58961316759566
 20
-3.281970214023257
 30
0.0
 10
20.58961316759566
 20
-3.281970214023257
 30
0.0
 10
20.60942246663584
 20
-3.161047362490988
 30
0.0
 10
20.65472547226688
 20
-3.07199164419728
 30
0.0
 10
20.72517767494023
 20
-3.015147568690657
 30
0.0
 10
20.79562987761359
 20
-2.958131238409773
 30
0.0
 10
20.89398735371748
 20
-2.929709200656461
 30
0.0
 10
21.02059461280041
 20
-2.929709200656461
 30
0.0
 10
21.16511636840664
 20
-2.929709200656461
 30
0.0
 10
21.27036403548102
 20
-2.970878091705197
 30
0.0
 10
21.33633761402355
 20
-3.053043619028406
 30
0.0
 10
21.40213893779183
 20
-3.135209146351614
 30
0.0
 10
21.43521185445023
 20
-3.26491699137127
 30
0.0
 10
21.43521185445023
 20
-3.441994899313112
 30
0.0
 10
21.43521185445023
 20
-3.441994899313112
 30
0.0
 10
21.43521185445023
 20
-4.366141763231381
 30
0.0
 10
21.43521185445023
 20
-4.366141763231381
 30
0.0
 10
21.43521185445023
 20
-4.366141763231381
 30
0.0
 10
21.28621147471317
 20
-4.366141763231381
 30
0.0
 10
21.28621147471317
 20
-4.366141763231381
 30
0.0
 10
21.28621147471317
 20
-4.366141763231381
 30
0.0
 10
21.28621147471317
 20
-4.162881129601641
 30
0.0
 10
21.28621147471317
 20
-4.162881129601641
 30
0.0
 10
21.24090846908214
 20
-4.2388454850514
 30
0.0
 10
21.18578694131814
 20
-4.297067598752121
 30
0.0
 10
21.12084689142118
 20
-4.33771972547807
 30
0.0
 10
21.05573458674996
 20
-4.378371852204018
 30
0.0
 10
20.9852823840766
 20
-4.398697915566992
 30
0.0
 10
20.9094902834011
 20
-4.398697915566992
 30
0.0
 10
20.79562987761359
 20
-4.398697915566992
 30
0.0
 10
20.70622964977136
 20
-4.361663139100556
 30
0.0
 10
20.64111734510014
 20
-4.287593586167685
 30
0.0
 10
20.57600504042892
 20
-4.213524033234813
 30
0.0
 10
20.54362114286757
 20
-4.113271754614043
 30
0.0
 10
20.54362114286757
 20
-3.986664495531111
 30
0.0
  0
HATCH
  5
A9
330
7D
100
AcDbEntity
  8
レイヤー 1
 62
   250
420
  4078137
440
 33554687
100
AcDbHatch
 10
0.0
 20
0.0
 30
0.0
210
0.0
220
0.0
230
1.0
  2
SOLID
 70
     1
 71
     1
 91
        2
 92
        1
 93
        1
 72
     4
 94
        3
 73
     0
 74
     0
 95
       29
 96
       25
 40
0.0
 40
0.0
 40
0.0
 40
0.0
 40
1.0
 40
1.0
 40
1.0
 40
2.0
 40
2.0
 40
2.0
 40
3.0
 40
3.0
 40
3.0
 40
4.0
 40
4.0
 40
4.0
 40
5.0
 40
5.0
 40
5.0
 40
6.0
 40
6.0
 40
6.0
 40
7.0
 40
7.0
 40
7.0
 40
8.0
 40
8.0
 40
8.0
 40
8.0
 10
20.70071749699496
 20
-3.978568521140774
 10
20.70071749699496
 20
-4.070724825371208
 10
20.72242159855203
 20
-4.142210556690142
 10
20.76582980166618
 20
-4.192681205549051
 10
20.80906575000607
 20
-4.243324109182224
 10
20.86969943054647
 20
-4.268645560998811
 10
20.94738633373885
 20
-4.268645560998811
 10
21.01060383589318
 20
-4.268645560998811
 10
21.06744791139981
 20
-4.251936847895349
 10
21.11809081503298
 20
-4.218519421688426
 10
21.16873371866615
 20
-4.185101995481502
 10
21.20886908106931
 20
-4.140832518496042
 10
21.23866915701672
 20
-4.085710990732044
 10
21.26846923296414
 20
-4.030589462968046
 10
21.28345539832497
 20
-3.970472546750437
 10
21.28345539832497
 20
-3.905360242079215
 10
21.28345539832497
 20
-3.905360242079215
 10
21.28345539832497
 20
-3.620795354997579
 10
21.28345539832497
 20
-3.620795354997579
 10
21.28345539832497
 20
-3.620795354997579
 10
21.10189886625231
 20
-3.631647405776115
 10
21.10189886625231
 20
-3.631647405776115
 10
20.83438720182265
 20
-3.651628959590565
 10
20.70071749699496
 20
-3.767211913120697
 10
20.70071749699496
 20
-3.978568521140774
 97
        0
 97
        1
330
A7
 92
        1
 93
        1
 72
     4
 94
        3
 73
     0
 74
     0
 95
       65
 96
       61
 40
0.0
 40
0.0
 40
0.0
 40
0.0
 40
1.0
 40
1.0
 40
1.0
 40
2.0
 40
2.0
 40
2.0
 40
3.0
 40
3.0
 40
3.0
 40
4.0
 40
4.0
 40
4.0
 40
5.0
 40
5.0
 40
5.0
 40
6.0
 40
6.0
 40
6.0
 40
7.0
 40
7.0
 40
7.0
 40
8.0
 40
8.0
 40
8.0
 40
9.0
 40
9.0
 40
9.0
 40
10.0
 40
10.0
 40
10.0
 40
11.0
 40
11.0
 40
11.0
 40
12.0
 40
12.0
 40
12.0
 40
13.0
 40
13.0
 40
13.0
 40
14.0
 40
14.0
 40
14.0
 40
15.0
 40
15.0
 40
15.0
 40
16.0
 40
16.0
 40
16.0
 40
17.0
 40
17.0
 40
17.0
 40
18.0
 40
18.0
 40
18.0
 40
19.0
 40
19.0
 40
19.0
 40
20.0
 40
20.0
 40
20.0
 40
20.0
 10
20.54362114286757
 20
-3.986664495531111
 10
20.54362114286757
 20
-3.84765489270128
 10
20.59099120578975
 20
-3.736895072850498
 10
20.68590358640839
 20
-3.65472954552729
 10
20.78064371225276
 20
-3.572564018204081
 10
20.91569145527455
 20
-3.526055229153208
 10
21.09104681547377
 20
-3.515203178374671
 10
21.09104681547377
 20
-3.515203178374671
 10
21.28345539832497
 20
-3.501595051207934
 10
21.28345539832497
 20
-3.501595051207934
 10
21.28345539832497
 20
-3.501595051207934
 10
21.28345539832497
 20
-3.436482746536712
 10
21.28345539832497
 20
-3.436482746536712
 10
21.28345539832497
 20
-3.302813041709018
 10
21.2617512967679
 20
-3.206178113347761
 10
21.21834309365375
 20
-3.146577961452938
 10
21.17510714531386
 20
-3.086977809558116
 10
21.10551621651182
 20
-3.057177733610705
 10
21.00974256202187
 20
-3.057177733610705
 10
20.92654350605309
 20
-3.057177733610705
 10
20.86280923957597
 20
-3.076125758779579
 10
20.81871201736477
 20
-3.114021809117327
 10
20.77427028560505
 20
-3.151917859455076
 10
20.74412570010911
 20
-3.213412813866785
 10
20.72776149655418
 20
-3.298334417578194
 10
20.72776149655418
 20
-3.298334417578194
 10
20.58961316759566
 20
-3.281970214023257
 10
20.58961316759566
 20
-3.281970214023257
 10
20.60942246663584
 20
-3.161047362490988
 10
20.65472547226688
 20
-3.07199164419728
 10
20.72517767494023
 20
-3.015147568690657
 10
20.79562987761359
 20
-2.958131238409773
 10
20.89398735371748
 20
-2.929709200656461
 10
21.02059461280041
 20
-2.929709200656461
 10
21.16511636840664
 20
-2.929709200656461
 10
21.27036403548102
 20
-2.970878091705197
 10
21.33633761402355
 20
-3.053043619028406
 10
21.40213893779183
 20
-3.135209146351614
 10
21.43521185445023
 20
-3.26491699137127
 10
21.43521185445023
 20
-3.441994899313112
 10
21.43521185445023
 20
-3.441994899313112
 10
21.43521185445023
 20
-4.366141763231381
 10
21.43521185445023
 20
-4.366141763231381
 10
21.43521185445023
 20
-4.366141763231381
 10
21.28621147471317
 20
-4.366141763231381
 10
21.28621147471317
 20
-4.366141763231381
 10
21.28621147471317
 20
-4.366141763231381
 10
21.28621147471317
 20
-4.162881129601641
 10
21.28621147471317
 20
-4.162881129601641
 10
21.24090846908214
 20
-4.2388454850514
 10
21.18578694131814
 20
-4.297067598752121
 10
21.12084689142118
 20
-4.33771972547807
 10
21.05573458674996
 20
-4.378371852204018
 10
20.9852823840766
 20
-4.398697915566992
 10
20.9094902834011
 20
-4.398697915566992
 10
20.79562987761359
 20
-4.398697915566992
 10
20.70622964977136
 20
-4.361663139100556
 10
20.64111734510014
 20
-4.287593586167685
 10
20.57600504042892
 20
-4.213524033234813
 10
20.54362114286757
 20
-4.113271754614043
 10
20.54362114286757
 20
-3.986664495531111
 97
        0
 97
        1
330
A8
 75
     2
 76
     1
 98
        1
 10
0.0
 20
0.0
450
        0
451
        0
460
0.0
461
0.0
452
        0
462
0.0
453
        0
470

  0
SPLINE
  5
AA
330
7D
100
AcDbEntity
  8
レイヤー 1
100
AcDbSpline
210
0.0
220
0.0
230
1.0
 70
     9
 71
     3
 72
    56
 73
    52
 74
     0
 42
0.0000000001
 43
0.0000000001
 40
0.0
 40
0.0
 40
0.0
 40
0.0
 40
1.0
 40
1.0
 40
1.0
 40
2.0
 40
2.0
 40
2.0
 40
3.0
 40
3.0
 40
3.0
 40
4.0
 40
4.0
 40
4.0
 40
5.0
 40
5.0
 40
5.0
 40
6.0
 40
6.0
 40
6.0
 40
7.0
 40
7.0
 40
7.0
 40
8.0
 40
8.0
 40
8.0
 40
9.0
 40
9.0
 40
9.0
 40
10.0
 40
10.0
 40
10.0
 40
11.0
 40
11.0
 40
11.0
 40
12.0
 40
12.0
 40
12.0
 40
13.0
 40
13.0
 40
13.0
 40
14.0
 40
14.0
 40
14.0
 40
15.0
 40
15.0
 40
15.0
 40
16.0
 40
16.0
 40
16.0
 40
17.0
 40
17.0
 40
17.0
 40
17.0
 10
21.83363714731937
 20
-4.030072698645259
 30
0.0
 10
21.83363714731937
 20
-4.030072698645259
 30
0.0
 10
21.83363714731937
 20
-3.097829860336653
 30
0.0
 10
21.83363714731937
 20
-3.097829860336653
 30
0.0
 10
21.83363714731937
 20
-3.097829860336653
 30
0.0
 10
21.65742051324884
 20
-3.097829860336653
 30
0.0
 10
21.65742051324884
 20
-3.097829860336653
 30
0.0
 10
21.65742051324884
 20
-3.097829860336653
 30
0.0
 10
21.65742051324884
 20
-2.973117403770609
 30
0.0
 10
21.65742051324884
 20
-2.973117403770609
 30
0.0
 10
21.65742051324884
 20
-2.973117403770609
 30
0.0
 10
21.83363714731937
 20
-2.973117403770609
 30
0.0
 10
21.83363714731937
 20
-2.973117403770609
 30
0.0
 10
21.83363714731937
 20
-2.973117403770609
 30
0.0
 10
21.83363714731937
 20
-2.588300238068202
 30
0.0
 10
21.83363714731937
 20
-2.588300238068202
 30
0.0
 10
21.83363714731937
 20
-2.588300238068202
 30
0.0
 10
21.98539360344462
 20
-2.588300238068202
 30
0.0
 10
21.98539360344462
 20
-2.588300238068202
 30
0.0
 10
21.98539360344462
 20
-2.588300238068202
 30
0.0
 10
21.98539360344462
 20
-2.973117403770609
 30
0.0
 10
21.98539360344462
 20
-2.973117403770609
 30
0.0
 10
21.98539360344462
 20
-2.973117403770609
 30
0.0
 10
22.28890651569514
 20
-2.973117403770609
 30
0.0
 10
22.28890651569514
 20
-2.973117403770609
 30
0.0
 10
22.28890651569514
 20
-2.973117403770609
 30
0.0
 10
22.28890651569514
 20
-3.097829860336653
 30
0.0
 10
22.28890651569514
 20
-3.097829860336653
 30
0.0
 10
22.28890651569514
 20
-3.097829860336653
 30
0.0
 10
21.98539360344462
 20
-3.097829860336653
 30
0.0
 10
21.98539360344462
 20
-3.097829860336653
 30
0.0
 10
21.98539360344462
 20
-3.097829860336653
 30
0.0
 10
21.98539360344462
 20
-4.040924749423797
 30
0.0
 10
21.98539360344462
 20
-4.040924749423797
 30
0.0
 10
21.98539360344462
 20
-4.190958657806427
 30
0.0
 10
22.04051513120862
 20
-4.26588948461061
 30
0.0
 10
22.15075818673662
 20
-4.26588948461061
 30
0.0
 10
22.19588893759339
 20
-4.26588948461061
 30
0.0
 10
22.24101968845016
 20
-4.255037433832074
 30
0.0
 10
22.28615043930694
 20
-4.233333332275
 30
0.0
 10
22.28615043930694
 20
-4.233333332275
 30
0.0
 10
22.31595051525435
 20
-4.349949814450707
 30
0.0
 10
22.31595051525435
 20
-4.349949814450707
 30
0.0
 10
22.25101046535739
 20
-4.38061116426943
 30
0.0
 10
22.18503688681485
 20
-4.395941839178792
 30
0.0
 10
22.11820203440101
 20
-4.395941839178792
 30
0.0
 10
22.02604573017057
 20
-4.395941839178792
 30
0.0
 10
21.95559352749722
 20
-4.364419215488756
 30
0.0
 10
21.90684542638093
 20
-4.301029458560159
 30
0.0
 10
21.85792507049038
 20
-4.237811956405825
 30
0.0
 10
21.83363714731937
 20
-4.147550454692279
 30
0.0
 10
21.83363714731937
 20
-4.030072698645259
 30
0.0
  0
HATCH
  5
AB
330
7D
100
AcDbEntity
  8
レイヤー 1
 62
   250
420
  4078137
440
 33554687
100
AcDbHatch
 10
0.0
 20
0.0
 30
0.0
210
0.0
220
0.0
230
1.0
  2
SOLID
 70
     1
 71
     1
 91
        1
 92
        1
 93
        1
 72
     4
 94
        3
 73
     0
 74
     0
 95
       56
 96
       52
 40
0.0
 40
0.0
 40
0.0
 40
0.0
 40
1.0
 40
1.0
 40
1.0
 40
2.0
 40
2.0
 40
2.0
 40
3.0
 40
3.0
 40
3.0
 40
4.0
 40
4.0
 40
4.0
 40
5.0
 40
5.0
 40
5.0
 40
6.0
 40
6.0
 40
6.0
 40
7.0
 40
7.0
 40
7.0
 40
8.0
 40
8.0
 40
8.0
 40
9.0
 40
9.0
 40
9.0
 40
10.0
 40
10.0
 40
10.0
 40
11.0
 40
11.0
 40
11.0
 40
12.0
 40
12.0
 40
12.0
 40
13.0
 40
13.0
 40
13.0
 40
14.0
 40
14.0
 40
14.0
 40
15.0
 40
15.0
 40
15.0
 40
16.0
 40
16.0
 40
16.0
 40
17.0
 40
17.0
 40
17.0
 40
17.0
 10
21.83363714731937
 20
-4.030072698645259
 10
21.83363714731937
 20
-4.030072698645259
 10
21.83363714731937
 20
-3.097829860336653
 10
21.83363714731937
 20
-3.097829860336653
 10
21.83363714731937
 20
-3.097829860336653
 10
21.65742051324884
 20
-3.097829860336653
 10
21.65742051324884
 20
-3.097829860336653
 10
21.65742051324884
 20
-3.097829860336653
 10
21.65742051324884
 20
-2.973117403770609
 10
21.65742051324884
 20
-2.973117403770609
 10
21.65742051324884
 20
-2.973117403770609
 10
21.83363714731937
 20
-2.973117403770609
 10
21.83363714731937
 20
-2.973117403770609
 10
21.83363714731937
 20
-2.973117403770609
 10
21.83363714731937
 20
-2.588300238068202
 10
21.83363714731937
 20
-2.588300238068202
 10
21.83363714731937
 20
-2.588300238068202
 10
21.98539360344462
 20
-2.588300238068202
 10
21.98539360344462
 20
-2.588300238068202
 10
21.98539360344462
 20
-2.588300238068202
 10
21.98539360344462
 20
-2.973117403770609
 10
21.98539360344462
 20
-2.973117403770609
 10
21.98539360344462
 20
-2.973117403770609
 10
22.28890651569514
 20
-2.973117403770609
 10
22.28890651569514
 20
-2.973117403770609
 10
22.28890651569514
 20
-2.973117403770609
 10
22.28890651569514
 20
-3.097829860336653
 10
22.28890651569514
 20
-3.097829860336653
 10
22.28890651569514
 20
-3.097829860336653
 10
21.98539360344462
 20
-3.097829860336653
 10
21.98539360344462
 20
-3.097829860336653
 10
21.98539360344462
 20
-3.097829860336653
 10
21.98539360344462
 20
-4.040924749423797
 10
21.98539360344462
 20
-4.040924749423797
 10
21.98539360344462
 20
-4.190958657806427
 10
22.04051513120862
 20
-4.26588948461061
 10
22.15075818673662
 20
-4.26588948461061
 10
22.19588893759339
 20
-4.26588948461061
 10
22.24101968845016
 20
-4.255037433832074
 10
22.28615043930694
 20
-4.233333332275
 10
22.28615043930694
 20
-4.233333332275
 10
22.31595051525435
 20
-4.349949814450707
 10
22.31595051525435
 20
-4.349949814450707
 10
22.25101046535739
 20
-4.38061116426943
 10
22.18503688681485
 20
-4.395941839178792
 10
22.11820203440101
 20
-4.395941839178792
 10
22.02604573017057
 20
-4.395941839178792
 10
21.95559352749722
 20
-4.364419215488756
 10
21.90684542638093
 20
-4.301029458560159
 10
21.85792507049038
 20
-4.237811956405825
 10
21.83363714731937
 20
-4.147550454692279
 10
21.83363714731937
 20
-4.030072698645259
 97
        0
 97
        1
330
AA
 75
     2
 76
     1
 98
        1
 10
0.0
 20
0.0
450
        0
451
        0
460
0.0
461
0.0
452
        0
462
0.0
453
        0
470

  0
SPLINE
  5
AC
330
7D
100
AcDbEntity
  8
レイヤー 1
100
AcDbSpline
210
0.0
220
0.0
230
1.0
 70
    11
 71
     3
 72
    17
 73
    13
 74
     0
 42
0.0000000001
 43
0.0000000001
 40
0.0
 40
0.0
 40
0.0
 40
0.0
 40
1.0
 40
1.0
 40
1.0
 40
2.0
 40
2.0
 40
2.0
 40
3.0
 40
3.0
 40
3.0
 40
4.0
 40
4.0
 40
4.0
 40
4.0
 10
22.54091525044116
 20
-2.973117403770609
 30
0.0
 10
22.54091525044116
 20
-2.973117403770609
 30
0.0
 10
22.69267170656641
 20
-2.973117403770609
 30
0.0
 10
22.69267170656641
 20
-2.973117403770609
 30
0.0
 10
22.69267170656641
 20
-2.973117403770609
 30
0.0
 10
22.69267170656641
 20
-4.366141763231381
 30
0.0
 10
22.69267170656641
 20
-4.366141763231381
 30
0.0
 10
22.69267170656641
 20
-4.366141763231381
 30
0.0
 10
22.54091525044116
 20
-4.366141763231381
 30
0.0
 10
22.54091525044116
 20
-4.366141763231381
 30
0.0
 10
22.54091525044116
 20
-4.366141763231381
 30
0.0
 10
22.54091525044116
 20
-2.973117403770609
 30
0.0
 10
22.54091525044116
 20
-2.973117403770609
 30
0.0
  0
SPLINE
  5
AD
330
7D
100
AcDbEntity
  8
レイヤー 1
100
AcDbSpline
210
0.0
220
0.0
230
1.0
 70
    11
 71
     3
 72
    17
 73
    13
 74
     0
 42
0.0000000001
 43
0.0000000001
 40
0.0
 40
0.0
 40
0.0
 40
0.0
 40
1.0
 40
1.0
 40
1.0
 40
2.0
 40
2.0
 40
2.0
 40
3.0
 40
3.0
 40
3.0
 40
4.0
 40
4.0
 40
4.0
 40
4.0
 10
22.53815917405296
 20
-2.431031629166547
 30
0.0
 10
22.53815917405296
 20
-2.431031629166547
 30
0.0
 10
22.69818385934282
 20
-2.431031629166547
 30
0.0
 10
22.69818385934282
 20
-2.431031629166547
 30
0.0
 10
22.69818385934282
 20
-2.431031629166547
 30
0.0
 10
22.69818385934282
 20
-2.69389241469111
 30
0.0
 10
22.69818385934282
 20
-2.69389241469111
 30
0.0
 10
22.69818385934282
 20
-2.69389241469111
 30
0.0
 10
22.53815917405296
 20
-2.69389241469111
 30
0.0
 10
22.53815917405296
 20
-2.69389241469111
 30
0.0
 10
22.53815917405296
 20
-2.69389241469111
 30
0.0
 10
22.53815917405296
 20
-2.431031629166547
 30
0.0
 10
22.53815917405296
 20
-2.431031629166547
 30
0.0
  0
HATCH
  5
AE
330
7D
100
AcDbEntity
  8
レイヤー 1
 62
   250
420
  4078137
440
 33554687
100
AcDbHatch
 10
0.0
 20
0.0
 30
0.0
210
0.0
220
0.0
230
1.0
  2
SOLID
 70
     1
 71
     1
 91
        2
 92
        1
 93
        1
 72
     4
 94
        3
 73
     0
 74
     0
 95
       17
 96
       13
 40
0.0
 40
0.0
 40
0.0
 40
0.0
 40
1.0
 40
1.0
 40
1.0
 40
2.0
 40
2.0
 40
2.0
 40
3.0
 40
3.0
 40
3.0
 40
4.0
 40
4.0
 40
4.0
 40
4.0
 10
22.54091525044116
 20
-2.973117403770609
 10
22.54091525044116
 20
-2.973117403770609
 10
22.69267170656641
 20
-2.973117403770609
 10
22.69267170656641
 20
-2.973117403770609
 10
22.69267170656641
 20
-2.973117403770609
 10
22.69267170656641
 20
-4.366141763231381
 10
22.69267170656641
 20
-4.366141763231381
 10
22.69267170656641
 20
-4.366141763231381
 10
22.54091525044116
 20
-4.366141763231381
 10
22.54091525044116
 20
-4.366141763231381
 10
22.54091525044116
 20
-4.366141763231381
 10
22.54091525044116
 20
-2.973117403770609
 10
22.54091525044116
 20
-2.973117403770609
 97
        0
 97
        1
330
AC
 92
        1
 93
        1
 72
     4
 94
        3
 73
     0
 74
     0
 95
       17
 96
       13
 40
0.0
 40
0.0
 40
0.0
 40
0.0
 40
1.0
 40
1.0
 40
1.0
 40
2.0
 40
2.0
 40
2.0
 40
3.0
 40
3.0
 40
3.0
 40
4.0
 40
4.0
 40
4.0
 40
4.0
 10
22.53815917405296
 20
-2.431031629166547
 10
22.53815917405296
 20
-2.431031629166547
 10
22.69818385934282
 20
-2.431031629166547
 10
22.69818385934282
 20
-2.431031629166547
 10
22.69818385934282
 20
-2.431031629166547
 10
22.69818385934282
 20
-2.69389241469111
 10
22.69818385934282
 20
-2.69389241469111
 10
22.69818385934282
 20
-2.69389241469111
 10
22.53815917405296
 20
-2.69389241469111
 10
22.53815917405296
 20
-2.69389241469111
 10
22.53815917405296
 20
-2.69389241469111
 10
22.53815917405296
 20
-2.431031629166547
 10
22.53815917405296
 20
-2.431031629166547
 97
        0
 97
        1
330
AD
 75
     2
 76
     1
 98
        1
 10
0.0
 20
0.0
450
        0
451
        0
460
0.0
461
0.0
452
        0
462
0.0
453
        0
470

  0
SPLINE
  5
AF
330
7D
100
AcDbEntity
  8
レイヤー 1
100
AcDbSpline
210
0.0
220
0.0
230
1.0
 70
     9
 71
     3
 72
    23
 73
    19
 74
     0
 42
0.0000000001
 43
0.0000000001
 40
0.0
 40
0.0
 40
0.0
 40
0.0
 40
1.0
 40
1.0
 40
1.0
 40
2.0
 40
2.0
 40
2.0
 40
3.0
 40
3.0
 40
3.0
 40
4.0
 40
4.0
 40
4.0
 40
5.0
 40
5.0
 40
5.0
 40
6.0
 40
6.0
 40
6.0
 40
6.0
 10
23.16964517649926
 20
-3.669543456113864
 30
0.0
 10
23.16964517649926
 20
-4.076064723373344
 30
0.0
 10
23.28247205364119
 20
-4.279497611777347
 30
0.0
 10
23.50847031747358
 20
-4.279497611777347
 30
0.0
 10
23.62233072326109
 20
-4.279497611777347
 30
0.0
 10
23.70708007219823
 20
-4.2291992176927
 30
0.0
 10
23.7632351286078
 20
-4.12894693907193
 30
0.0
 10
23.81921793024311
 20
-4.02869466045116
 30
0.0
 10
23.84712320367364
 20
-3.874698892260492
 30
0.0
 10
23.84712320367364
 20
-3.666959634499927
 30
0.0
 10
23.84712320367364
 20
-3.26216091498307
 30
0.0
 10
23.7342963265317
 20
-3.059761555224643
 30
0.0
 10
23.50847031747358
 20
-3.059761555224643
 30
0.0
 10
23.39271510916919
 20
-3.059761555224643
 30
0.0
 10
23.30744899590925
 20
-3.109543184986503
 30
0.0
 10
23.25232746814525
 20
-3.20893418973596
 30
0.0
 10
23.19720594038126
 20
-3.308325194485418
 30
0.0
 10
23.16964517649926
 20
-3.461804198353299
 30
0.0
 10
23.16964517649926
 20
-3.669543456113864
 30
0.0
  0
SPLINE
  5
B0
330
7D
100
AcDbEntity
  8
レイヤー 1
100
AcDbSpline
210
0.0
220
0.0
230
1.0
 70
     9
 71
     3
 72
    23
 73
    19
 74
     0
 42
0.0000000001
 43
0.0000000001
 40
0.0
 40
0.0
 40
0.0
 40
0.0
 40
1.0
 40
1.0
 40
1.0
 40
2.0
 40
2.0
 40
2.0
 40
3.0
 40
3.0
 40
3.0
 40
4.0
 40
4.0
 40
4.0
 40
5.0
 40
5.0
 40
5.0
 40
6.0
 40
6.0
 40
6.0
 40
6.0
 10
23.00979274598367
 20
-3.669543456113864
 30
0.0
 10
23.00979274598367
 20
-3.427525498275063
 30
0.0
 10
23.05216742045224
 20
-3.243729654136984
 30
0.0
 10
23.13708902416365
 20
-3.118155923699627
 30
0.0
 10
23.22201062787506
 20
-2.992582193262271
 30
0.0
 10
23.34586181056979
 20
-2.929709200656461
 30
0.0
 10
23.50847031747358
 20
-2.929709200656461
 30
0.0
 10
23.84092203180019
 20
-2.929709200656461
 30
0.0
 10
24.00714788896349
 20
-3.175516763529037
 30
0.0
 10
24.00714788896349
 20
-3.666959634499927
 30
0.0
 10
24.00714788896349
 20
-3.907255044596102
 30
0.0
 10
23.96460095972066
 20
-4.091050888734182
 30
0.0
 10
23.87967935600925
 20
-4.218519421688426
 30
0.0
 10
23.79475775229784
 20
-4.345815699868407
 30
0.0
 10
23.6700452957318
 20
-4.409549966345529
 30
0.0
 10
23.50571424108538
 20
-4.409549966345529
 30
0.0
 10
23.17515732927565
 20
-4.409549966345529
 30
0.0
 10
23.00979274598367
 20
-4.162881129601641
 30
0.0
 10
23.00979274598367
 20
-3.669543456113864
 30
0.0
  0
HATCH
  5
B1
330
7D
100
AcDbEntity
  8
レイヤー 1
 62
   250
420
  4078137
440
 33554687
100
AcDbHatch
 10
0.0
 20
0.0
 30
0.0
210
0.0
220
0.0
230
1.0
  2
SOLID
 70
     1
 71
     1
 91
        2
 92
        1
 93
        1
 72
     4
 94
        3
 73
     0
 74
     0
 95
       23
 96
       19
 40
0.0
 40
0.0
 40
0.0
 40
0.0
 40
1.0
 40
1.0
 40
1.0
 40
2.0
 40
2.0
 40
2.0
 40
3.0
 40
3.0
 40
3.0
 40
4.0
 40
4.0
 40
4.0
 40
5.0
 40
5.0
 40
5.0
 40
6.0
 40
6.0
 40
6.0
 40
6.0
 10
23.16964517649926
 20
-3.669543456113864
 10
23.16964517649926
 20
-4.076064723373344
 10
23.28247205364119
 20
-4.279497611777347
 10
23.50847031747358
 20
-4.279497611777347
 10
23.62233072326109
 20
-4.279497611777347
 10
23.70708007219823
 20
-4.2291992176927
 10
23.7632351286078
 20
-4.12894693907193
 10
23.81921793024311
 20
-4.02869466045116
 10
23.84712320367364
 20
-3.874698892260492
 10
23.84712320367364
 20
-3.666959634499927
 10
23.84712320367364
 20
-3.26216091498307
 10
23.7342963265317
 20
-3.059761555224643
 10
23.50847031747358
 20
-3.059761555224643
 10
23.39271510916919
 20
-3.059761555224643
 10
23.30744899590925
 20
-3.109543184986503
 10
23.25232746814525
 20
-3.20893418973596
 10
23.19720594038126
 20
-3.308325194485418
 10
23.16964517649926
 20
-3.461804198353299
 10
23.16964517649926
 20
-3.669543456113864
 97
        0
 97
        1
330
AF
 92
        1
 93
        1
 72
     4
 94
        3
 73
     0
 74
     0
 95
       23
 96
       19
 40
0.0
 40
0.0
 40
0.0
 40
0.0
 40
1.0
 40
1.0
 40
1.0
 40
2.0
 40
2.0
 40
2.0
 40
3.0
 40
3.0
 40
3.0
 40
4.0
 40
4.0
 40
4.0
 40
5.0
 40
5.0
 40
5.0
 40
6.0
 40
6.0
 40
6.0
 40
6.0
 10
23.00979274598367
 20
-3.669543456113864
 10
23.00979274598367
 20
-3.427525498275063
 10
23.05216742045224
 20
-3.243729654136984
 10
23.13708902416365
 20
-3.118155923699627
 10
23.22201062787506
 20
-2.992582193262271
 10
23.34586181056979
 20
-2.929709200656461
 10
23.50847031747358
 20
-2.929709200656461
 10
23.84092203180019
 20
-2.929709200656461
 10
24.00714788896349
 20
-3.175516763529037
 10
24.00714788896349
 20
-3.666959634499927
 10
24.00714788896349
 20
-3.907255044596102
 10
23.96460095972066
 20
-4.091050888734182
 10
23.87967935600925
 20
-4.218519421688426
 10
23.79475775229784
 20
-4.345815699868407
 10
23.6700452957318
 20
-4.409549966345529
 10
23.50571424108538
 20
-4.409549966345529
 10
23.17515732927565
 20
-4.409549966345529
 10
23.00979274598367
 20
-4.162881129601641
 10
23.00979274598367
 20
-3.669543456113864
 97
        0
 97
        1
330
B0
 75
     2
 76
     1
 98
        1
 10
0.0
 20
0.0
450
        0
451
        0
460
0.0
461
0.0
452
        0
462
0.0
453
        0
470

  0
SPLINE
  5
B2
330
7D
100
AcDbEntity
  8
レイヤー 1
100
AcDbSpline
210
0.0
220
0.0
230
1.0
 70
    11
 71
     3
 72
    56
 73
    52
 74
     0
 42
0.0000000001
 43
0.0000000001
 40
0.0
 40
0.0
 40
0.0
 40
0.0
 40
1.0
 40
1.0
 40
1.0
 40
2.0
 40
2.0
 40
2.0
 40
3.0
 40
3.0
 40
3.0
 40
4.0
 40
4.0
 40
4.0
 40
5.0
 40
5.0
 40
5.0
 40
6.0
 40
6.0
 40
6.0
 40
7.0
 40
7.0
 40
7.0
 40
8.0
 40
8.0
 40
8.0
 40
9.0
 40
9.0
 40
9.0
 40
10.0
 40
10.0
 40
10.0
 40
11.0
 40
11.0
 40
11.0
 40
12.0
 40
12.0
 40
12.0
 40
13.0
 40
13.0
 40
13.0
 40
14.0
 40
14.0
 40
14.0
 40
15.0
 40
15.0
 40
15.0
 40
16.0
 40
16.0
 40
16.0
 40
17.0
 40
17.0
 40
17.0
 40
17.0
 10
24.32426892838074
 20
-2.973117403770609
 30
0.0
 10
24.32426892838074
 20
-2.973117403770609
 30
0.0
 10
24.47602538450599
 20
-2.973117403770609
 30
0.0
 10
24.47602538450599
 20
-2.973117403770609
 30
0.0
 10
24.47602538450599
 20
-2.973117403770609
 30
0.0
 10
24.47602538450599
 20
-3.154673935843276
 30
0.0
 10
24.47602538450599
 20
-3.154673935843276
 30
0.0
 10
24.52115613536277
 20
-3.082499185427292
 30
0.0
 10
24.57817246564366
 20
-3.026860893340507
 30
0.0
 10
24.64672986580012
 20
-2.987931314357183
 30
0.0
 10
24.71545952073086
 20
-2.949173990148123
 30
0.0
 10
24.78780652592111
 20
-2.929709200656461
 30
0.0
 10
24.8635986265966
 20
-2.929709200656461
 30
0.0
 10
24.97918158012673
 20
-2.929709200656461
 30
0.0
 10
25.06995984616307
 20
-2.966743977122897
 30
0.0
 10
25.1359334247056
 20
-3.040813530055769
 30
0.0
 10
25.20190700324814
 20
-3.11488308298864
 30
0.0
 10
25.23497991990653
 20
-3.21789143799761
 30
0.0
 10
25.23497991990653
 20
-3.349838595082679
 30
0.0
 10
25.23497991990653
 20
-3.349838595082679
 30
0.0
 10
25.23497991990653
 20
-4.366141763231381
 30
0.0
 10
25.23497991990653
 20
-4.366141763231381
 30
0.0
 10
25.23497991990653
 20
-4.366141763231381
 30
0.0
 10
25.08046738739308
 20
-4.366141763231381
 30
0.0
 10
25.08046738739308
 20
-4.366141763231381
 30
0.0
 10
25.08046738739308
 20
-4.366141763231381
 30
0.0
 10
25.08046738739308
 20
-3.37412651825369
 30
0.0
 10
25.08046738739308
 20
-3.37412651825369
 30
0.0
 10
25.08046738739308
 20
-3.170004610752637
 30
0.0
 10
24.99554578368167
 20
-3.068029784389242
 30
0.0
 10
24.82570257625885
 20
-3.068029784389242
 30
0.0
 10
24.77505967262568
 20
-3.068029784389242
 30
0.0
 10
24.72545029763808
 20
-3.080087618587616
 30
0.0
 10
24.67652994174754
 20
-3.10454779653289
 30
0.0
 10
24.62778184063125
 20
-3.129007974478164
 30
0.0
 10
24.58626844003399
 20
-3.160013833845413
 30
0.0
 10
24.55198973995575
 20
-3.198082138957424
 30
0.0
 10
24.52839083588179
 20
-3.225126138516635
 30
0.0
 10
24.5099595750357
 20
-3.254064940592733
 30
0.0
 10
24.49635144786897
 20
-3.284726290411457
 30
0.0
 10
24.4829155754765
 20
-3.315559895004443
 30
0.0
 10
24.47602538450599
 20
-3.347082518694479
 30
0.0
 10
24.47602538450599
 20
-3.37963867103009
 30
0.0
 10
24.47602538450599
 20
-3.37963867103009
 30
0.0
 10
24.47602538450599
 20
-4.366141763231381
 30
0.0
 10
24.47602538450599
 20
-4.366141763231381
 30
0.0
 10
24.47602538450599
 20
-4.366141763231381
 30
0.0
 10
24.32426892838074
 20
-4.366141763231381
 30
0.0
 10
24.32426892838074
 20
-4.366141763231381
 30
0.0
 10
24.32426892838074
 20
-4.366141763231381
 30
0.0
 10
24.32426892838074
 20
-2.973117403770609
 30
0.0
 10
24.32426892838074
 20
-2.973117403770609
 30
0.0
  0
HATCH
  5
B3
330
7D
100
AcDbEntity
  8
レイヤー 1
 62
   250
420
  4078137
440
 33554687
100
AcDbHatch
 10
0.0
 20
0.0
 30
0.0
210
0.0
220
0.0
230
1.0
  2
SOLID
 70
     1
 71
     1
 91
        1
 92
        1
 93
        1
 72
     4
 94
        3
 73
     0
 74
     0
 95
       56
 96
       52
 40
0.0
 40
0.0
 40
0.0
 40
0.0
 40
1.0
 40
1.0
 40
1.0
 40
2.0
 40
2.0
 40
2.0
 40
3.0
 40
3.0
 40
3.0
 40
4.0
 40
4.0
 40
4.0
 40
5.0
 40
5.0
 40
5.0
 40
6.0
 40
6.0
 40
6.0
 40
7.0
 40
7.0
 40
7.0
 40
8.0
 40
8.0
 40
8.0
 40
9.0
 40
9.0
 40
9.0
 40
10.0
 40
10.0
 40
10.0
 40
11.0
 40
11.0
 40
11.0
 40
12.0
 40
12.0
 40
12.0
 40
13.0
 40
13.0
 40
13.0
 40
14.0
 40
14.0
 40
14.0
 40
15.0
 40
15.0
 40
15.0
 40
16.0
 40
16.0
 40
16.0
 40
17.0
 40
17.0
 40
17.0
 40
17.0
 10
24.32426892838074
 20
-2.973117403770609
 10
24.32426892838074
 20
-2.973117403770609
 10
24.47602538450599
 20
-2.973117403770609
 10
24.47602538450599
 20
-2.973117403770609
 10
24.47602538450599
 20
-2.973117403770609
 10
24.47602538450599
 20
-3.154673935843276
 10
24.47602538450599
 20
-3.154673935843276
 10
24.52115613536277
 20
-3.082499185427292
 10
24.57817246564366
 20
-3.026860893340507
 10
24.64672986580012
 20
-2.987931314357183
 10
24.71545952073086
 20
-2.949173990148123
 10
24.78780652592111
 20
-2.929709200656461
 10
24.8635986265966
 20
-2.929709200656461
 10
24.97918158012673
 20
-2.929709200656461
 10
25.06995984616307
 20
-2.966743977122897
 10
25.1359334247056
 20
-3.040813530055769
 10
25.20190700324814
 20
-3.11488308298864
 10
25.23497991990653
 20
-3.21789143799761
 10
25.23497991990653
 20
-3.349838595082679
 10
25.23497991990653
 20
-3.349838595082679
 10
25.23497991990653
 20
-4.366141763231381
 10
25.23497991990653
 20
-4.366141763231381
 10
25.23497991990653
 20
-4.366141763231381
 10
25.08046738739308
 20
-4.366141763231381
 10
25.08046738739308
 20
-4.366141763231381
 10
25.08046738739308
 20
-4.366141763231381
 10
25.08046738739308
 20
-3.37412651825369
 10
25.08046738739308
 20
-3.37412651825369
 10
25.08046738739308
 20
-3.170004610752637
 10
24.99554578368167
 20
-3.068029784389242
 10
24.82570257625885
 20
-3.068029784389242
 10
24.77505967262568
 20
-3.068029784389242
 10
24.72545029763808
 20
-3.080087618587616
 10
24.67652994174754
 20
-3.10454779653289
 10
24.62778184063125
 20
-3.129007974478164
 10
24.58626844003399
 20
-3.160013833845413
 10
24.55198973995575
 20
-3.198082138957424
 10
24.52839083588179
 20
-3.225126138516635
 10
24.5099595750357
 20
-3.254064940592733
 10
24.49635144786897
 20
-3.284726290411457
 10
24.4829155754765
 20
-3.315559895004443
 10
24.47602538450599
 20
-3.347082518694479
 10
24.47602538450599
 20
-3.37963867103009
 10
24.47602538450599
 20
-3.37963867103009
 10
24.47602538450599
 20
-4.366141763231381
 10
24.47602538450599
 20
-4.366141763231381
 10
24.47602538450599
 20
-4.366141763231381
 10
24.32426892838074
 20
-4.366141763231381
 10
24.32426892838074
 20
-4.366141763231381
 10
24.32426892838074
 20
-4.366141763231381
 10
24.32426892838074
 20
-2.973117403770609
 10
24.32426892838074
 20
-2.973117403770609
 97
        0
 97
        1
330
B2
 75
     2
 76
     1
 98
        1
 10
0.0
 20
0.0
450
        0
451
        0
460
0.0
461
0.0
452
        0
462
0.0
453
        0
470

  0
SPLINE
  5
B4
330
7D
100
AcDbEntity
  8
レイヤー 1
100
AcDbSpline
210
0.0
220
0.0
230
1.0
 70
    11
 71
     3
 72
    17
 73
    13
 74
     0
 42
0.0000000001
 43
0.0000000001
 40
0.0
 40
0.0
 40
0.0
 40
0.0
 40
1.0
 40
1.0
 40
1.0
 40
2.0
 40
2.0
 40
2.0
 40
3.0
 40
3.0
 40
3.0
 40
4.0
 40
4.0
 40
4.0
 40
4.0
 10
25.41636419720494
 20
-4.699454751429303
 30
0.0
 10
25.41636419720494
 20
-4.699454751429303
 30
0.0
 10
26.50053574641306
 20
-4.699454751429303
 30
0.0
 10
26.50053574641306
 20
-4.699454751429303
 30
0.0
 10
26.50053574641306
 20
-4.699454751429303
 30
0.0
 10
26.50053574641306
 20
-4.802463106438273
 30
0.0
 10
26.50053574641306
 20
-4.802463106438273
 30
0.0
 10
26.50053574641306
 20
-4.802463106438273
 30
0.0
 10
25.41636419720494
 20
-4.802463106438273
 30
0.0
 10
25.41636419720494
 20
-4.802463106438273
 30
0.0
 10
25.41636419720494
 20
-4.802463106438273
 30
0.0
 10
25.41636419720494
 20
-4.699454751429303
 30
0.0
 10
25.41636419720494
 20
-4.699454751429303
 30
0.0
  0
HATCH
  5
B5
330
7D
100
AcDbEntity
  8
レイヤー 1
 62
   250
420
  4078137
440
 33554687
100
AcDbHatch
 10
0.0
 20
0.0
 30
0.0
210
0.0
220
0.0
230
1.0
  2
SOLID
 70
     1
 71
     1
 91
        1
 92
        1
 93
        1
 72
     4
 94
        3
 73
     0
 74
     0
 95
       17
 96
       13
 40
0.0
 40
0.0
 40
0.0
 40
0.0
 40
1.0
 40
1.0
 40
1.0
 40
2.0
 40
2.0
 40
2.0
 40
3.0
 40
3.0
 40
3.0
 40
4.0
 40
4.0
 40
4.0
 40
4.0
 10
25.41636419720494
 20
-4.699454751429303
 10
25.41636419720494
 20
-4.699454751429303
 10
26.50053574641306
 20
-4.699454751429303
 10
26.50053574641306
 20
-4.699454751429303
 10
26.50053574641306
 20
-4.699454751429303
 10
26.50053574641306
 20
-4.802463106438273
 10
26.50053574641306
 20
-4.802463106438273
 10
26.50053574641306
 20
-4.802463106438273
 10
25.41636419720494
 20
-4.802463106438273
 10
25.41636419720494
 20
-4.802463106438273
 10
25.41636419720494
 20
-4.802463106438273
 10
25.41636419720494
 20
-4.699454751429303
 10
25.41636419720494
 20
-4.699454751429303
 97
        0
 97
        1
330
B4
 75
     2
 76
     1
 98
        1
 10
0.0
 20
0.0
450
        0
451
        0
460
0.0
461
0.0
452
        0
462
0.0
453
        0
470

  0
SPLINE
  5
B6
330
7D
100
AcDbEntity
  8
レイヤー 1
100
AcDbSpline
210
0.0
220
0.0
230
1.0
 70
     9
 71
     3
 72
    50
 73
    46
 74
     0
 42
0.0000000001
 43
0.0000000001
 40
0.0
 40
0.0
 40
0.0
 40
0.0
 40
1.0
 40
1.0
 40
1.0
 40
2.0
 40
2.0
 40
2.0
 40
3.0
 40
3.0
 40
3.0
 40
4.0
 40
4.0
 40
4.0
 40
5.0
 40
5.0
 40
5.0
 40
6.0
 40
6.0
 40
6.0
 40
7.0
 40
7.0
 40
7.0
 40
8.0
 40
8.0
 40
8.0
 40
9.0
 40
9.0
 40
9.0
 40
10.0
 40
10.0
 40
10.0
 40
11.0
 40
11.0
 40
11.0
 40
12.0
 40
12.0
 40
12.0
 40
13.0
 40
13.0
 40
13.0
 40
14.0
 40
14.0
 40
14.0
 40
15.0
 40
15.0
 40
15.0
 40
15.0
 10
26.62524820297911
 20
-3.677811685278463
 30
0.0
 10
26.62524820297911
 20
-3.432004122405888
 30
0.0
 10
26.66762287744768
 20
-3.245968966202396
 30
0.0
 10
26.75254448115909
 20
-3.119361707119465
 30
0.0
 10
26.8374660848705
 20
-2.992926702810796
 30
0.0
 10
26.96217854143654
 20
-2.929709200656461
 30
0.0
 10
27.12650959608296
 20
-2.929709200656461
 30
0.0
 10
27.36318765591962
 20
-2.929709200656461
 30
0.0
 10
27.50598686378323
 20
-3.082499185427292
 30
0.0
 10
27.55473496489952
 20
-3.387734645420427
 30
0.0
 10
27.55473496489952
 20
-3.387734645420427
 30
0.0
 10
27.40849066155066
 20
-3.409438746977501
 30
0.0
 10
27.40849066155066
 20
-3.409438746977501
 30
0.0
 10
27.38850910773621
 20
-3.288343640670969
 30
0.0
 10
27.35509168152928
 20
-3.199804686700049
 30
0.0
 10
27.30823838292989
 20
-3.143821885064739
 30
0.0
 10
27.26121282955622
 20
-3.087839083429429
 30
0.0
 10
27.19799532740189
 20
-3.059761555224643
 30
0.0
 10
27.11841362169262
 20
-3.059761555224643
 30
0.0
 10
27.006448018422
 20
-3.059761555224643
 30
0.0
 10
26.92290445290469
 20
-3.109887694535028
 30
0.0
 10
26.8677829251407
 20
-3.210312227930061
 30
0.0
 10
26.8126613973767
 20
-3.310564506550831
 30
0.0
 10
26.7851006334947
 20
-3.464560274741498
 30
0.0
 10
26.7851006334947
 20
-3.672299532502063
 30
0.0
 10
26.7851006334947
 20
-3.878316242520004
 30
0.0
 10
26.8126613973767
 20
-4.030933972516572
 30
0.0
 10
26.8677829251407
 20
-4.130324977266029
 30
0.0
 10
26.92290445290469
 20
-4.229715982015488
 30
0.0
 10
27.006448018422
 20
-4.279497611777347
 30
0.0
 10
27.11841362169262
 20
-4.279497611777347
 30
0.0
 10
27.20884737818043
 20
-4.279497611777347
 30
0.0
 10
27.27792154265969
 20
-4.248319497635836
 30
0.0
 10
27.32580836990466
 20
-4.185963269352814
 30
0.0
 10
27.37369519714964
 20
-4.123607041069792
 30
0.0
 10
27.40401203741984
 20
-4.028350150902634
 30
0.0
 10
27.416586635941
 20
-3.900020344077078
 30
0.0
 10
27.416586635941
 20
-3.900020344077078
 30
0.0
 10
27.56834309206625
 20
-3.900020344077078
 30
0.0
 10
27.56834309206625
 20
-3.900020344077078
 30
0.0
 10
27.5304470417285
 20
-4.239706758922712
 30
0.0
 10
27.37869058560324
 20
-4.409549966345529
 30
0.0
 10
27.11307372369049
 20
-4.409549966345529
 30
0.0
 10
26.7878567098829
 20
-4.409549966345529
 30
0.0
 10
26.62524820297911
 20
-4.16563720598984
 30
0.0
 10
26.62524820297911
 20
-3.677811685278463
 30
0.0
  0
HATCH
  5
B7
330
7D
100
AcDbEntity
  8
レイヤー 1
 62
   250
420
  4078137
440
 33554687
100
AcDbHatch
 10
0.0
 20
0.0
 30
0.0
210
0.0
220
0.0
230
1.0
  2
SOLID
 70
     1
 71
     1
 91
        1
 92
        1
 93
        1
 72
     4
 94
        3
 73
     0
 74
     0
 95
       50
 96
       46
 40
0.0
 40
0.0
 40
0.0
 40
0.0
 40
1.0
 40
1.0
 40
1.0
 40
2.0
 40
2.0
 40
2.0
 40
3.0
 40
3.0
 40
3.0
 40
4.0
 40
4.0
 40
4.0
 40
5.0
 40
5.0
 40
5.0
 40
6.0
 40
6.0
 40
6.0
 40
7.0
 40
7.0
 40
7.0
 40
8.0
 40
8.0
 40
8.0
 40
9.0
 40
9.0
 40
9.0
 40
10.0
 40
10.0
 40
10.0
 40
11.0
 40
11.0
 40
11.0
 40
12.0
 40
12.0
 40
12.0
 40
13.0
 40
13.0
 40
13.0
 40
14.0
 40
14.0
 40
14.0
 40
15.0
 40
15.0
 40
15.0
 40
15.0
 10
26.62524820297911
 20
-3.677811685278463
 10
26.62524820297911
 20
-3.432004122405888
 10
26.66762287744768
 20
-3.245968966202396
 10
26.75254448115909
 20
-3.119361707119465
 10
26.8374660848705
 20
-2.992926702810796
 10
26.96217854143654
 20
-2.929709200656461
 10
27.12650959608296
 20
-2.929709200656461
 10
27.36318765591962
 20
-2.929709200656461
 10
27.50598686378323
 20
-3.082499185427292
 10
27.55473496489952
 20
-3.387734645420427
 10
27.55473496489952
 20
-3.387734645420427
 10
27.40849066155066
 20
-3.409438746977501
 10
27.40849066155066
 20
-3.409438746977501
 10
27.38850910773621
 20
-3.288343640670969
 10
27.35509168152928
 20
-3.199804686700049
 10
27.30823838292989
 20
-3.143821885064739
 10
27.26121282955622
 20
-3.087839083429429
 10
27.19799532740189
 20
-3.059761555224643
 10
27.11841362169262
 20
-3.059761555224643
 10
27.006448018422
 20
-3.059761555224643
 10
26.92290445290469
 20
-3.109887694535028
 10
26.8677829251407
 20
-3.210312227930061
 10
26.8126613973767
 20
-3.310564506550831
 10
26.7851006334947
 20
-3.464560274741498
 10
26.7851006334947
 20
-3.672299532502063
 10
26.7851006334947
 20
-3.878316242520004
 10
26.8126613973767
 20
-4.030933972516572
 10
26.8677829251407
 20
-4.130324977266029
 10
26.92290445290469
 20
-4.229715982015488
 10
27.006448018422
 20
-4.279497611777347
 10
27.11841362169262
 20
-4.279497611777347
 10
27.20884737818043
 20
-4.279497611777347
 10
27.27792154265969
 20
-4.248319497635836
 10
27.32580836990466
 20
-4.185963269352814
 10
27.37369519714964
 20
-4.123607041069792
 10
27.40401203741984
 20
-4.028350150902634
 10
27.416586635941
 20
-3.900020344077078
 10
27.416586635941
 20
-3.900020344077078
 10
27.56834309206625
 20
-3.900020344077078
 10
27.56834309206625
 20
-3.900020344077078
 10
27.5304470417285
 20
-4.239706758922712
 10
27.37869058560324
 20
-4.409549966345529
 10
27.11307372369049
 20
-4.409549966345529
 10
26.7878567098829
 20
-4.409549966345529
 10
26.62524820297911
 20
-4.16563720598984
 10
26.62524820297911
 20
-3.677811685278463
 97
        0
 97
        1
330
B6
 75
     2
 76
     1
 98
        1
 10
0.0
 20
0.0
450
        0
451
        0
460
0.0
461
0.0
452
        0
462
0.0
453
        0
470

  0
SPLINE
  5
B8
330
7D
100
AcDbEntity
  8
レイヤー 1
100
AcDbSpline
210
0.0
220
0.0
230
1.0
 70
    11
 71
     3
 72
    17
 73
    13
 74
     0
 42
0.0000000001
 43
0.0000000001
 40
0.0
 40
0.0
 40
0.0
 40
0.0
 40
1.0
 40
1.0
 40
1.0
 40
2.0
 40
2.0
 40
2.0
 40
3.0
 40
3.0
 40
3.0
 40
4.0
 40
4.0
 40
4.0
 40
4.0
 10
27.84739582637149
 20
-2.431031629166547
 30
0.0
 10
27.84739582637149
 20
-2.431031629166547
 30
0.0
 10
27.99915228249674
 20
-2.431031629166547
 30
0.0
 10
27.99915228249674
 20
-2.431031629166547
 30
0.0
 10
27.99915228249674
 20
-2.431031629166547
 30
0.0
 10
27.99915228249674
 20
-4.366141763231381
 30
0.0
 10
27.99915228249674
 20
-4.366141763231381
 30
0.0
 10
27.99915228249674
 20
-4.366141763231381
 30
0.0
 10
27.84739582637149
 20
-4.366141763231381
 30
0.0
 10
27.84739582637149
 20
-4.366141763231381
 30
0.0
 10
27.84739582637149
 20
-4.366141763231381
 30
0.0
 10
27.84739582637149
 20
-2.431031629166547
 30
0.0
 10
27.84739582637149
 20
-2.431031629166547
 30
0.0
  0
HATCH
  5
B9
330
7D
100
AcDbEntity
  8
レイヤー 1
 62
   250
420
  4078137
440
 33554687
100
AcDbHatch
 10
0.0
 20
0.0
 30
0.0
210
0.0
220
0.0
230
1.0
  2
SOLID
 70
     1
 71
     1
 91
        1
 92
        1
 93
        1
 72
     4
 94
        3
 73
     0
 74
     0
 95
       17
 96
       13
 40
0.0
 40
0.0
 40
0.0
 40
0.0
 40
1.0
 40
1.0
 40
1.0
 40
2.0
 40
2.0
 40
2.0
 40
3.0
 40
3.0
 40
3.0
 40
4.0
 40
4.0
 40
4.0
 40
4.0
 10
27.84739582637149
 20
-2.431031629166547
 10
27.84739582637149
 20
-2.431031629166547
 10
27.99915228249674
 20
-2.431031629166547
 10
27.99915228249674
 20
-2.431031629166547
 10
27.99915228249674
 20
-2.431031629166547
 10
27.99915228249674
 20
-4.366141763231381
 10
27.99915228249674
 20
-4.366141763231381
 10
27.99915228249674
 20
-4.366141763231381
 10
27.84739582637149
 20
-4.366141763231381
 10
27.84739582637149
 20
-4.366141763231381
 10
27.84739582637149
 20
-4.366141763231381
 10
27.84739582637149
 20
-2.431031629166547
 10
27.84739582637149
 20
-2.431031629166547
 97
        0
 97
        1
330
B8
 75
     2
 76
     1
 98
        1
 10
0.0
 20
0.0
450
        0
451
        0
460
0.0
461
0.0
452
        0
462
0.0
453
        0
470

  0
SPLINE
  5
BA
330
7D
100
AcDbEntity
  8
レイヤー 1
100
AcDbSpline
210
0.0
220
0.0
230
1.0
 70
    11
 71
     3
 72
    17
 73
    13
 74
     0
 42
0.0000000001
 43
0.0000000001
 40
0.0
 40
0.0
 40
0.0
 40
0.0
 40
1.0
 40
1.0
 40
1.0
 40
2.0
 40
2.0
 40
2.0
 40
3.0
 40
3.0
 40
3.0
 40
4.0
 40
4.0
 40
4.0
 40
4.0
 10
28.38396944819915
 20
-2.973117403770609
 30
0.0
 10
28.38396944819915
 20
-2.973117403770609
 30
0.0
 10
28.5357259043244
 20
-2.973117403770609
 30
0.0
 10
28.5357259043244
 20
-2.973117403770609
 30
0.0
 10
28.5357259043244
 20
-2.973117403770609
 30
0.0
 10
28.5357259043244
 20
-4.366141763231381
 30
0.0
 10
28.5357259043244
 20
-4.366141763231381
 30
0.0
 10
28.5357259043244
 20
-4.366141763231381
 30
0.0
 10
28.38396944819915
 20
-4.366141763231381
 30
0.0
 10
28.38396944819915
 20
-4.366141763231381
 30
0.0
 10
28.38396944819915
 20
-4.366141763231381
 30
0.0
 10
28.38396944819915
 20
-2.973117403770609
 30
0.0
 10
28.38396944819915
 20
-2.973117403770609
 30
0.0
  0
SPLINE
  5
BB
330
7D
100
AcDbEntity
  8
レイヤー 1
100
AcDbSpline
210
0.0
220
0.0
230
1.0
 70
    11
 71
     3
 72
    17
 73
    13
 74
     0
 42
0.0000000001
 43
0.0000000001
 40
0.0
 40
0.0
 40
0.0
 40
0.0
 40
1.0
 40
1.0
 40
1.0
 40
2.0
 40
2.0
 40
2.0
 40
3.0
 40
3.0
 40
3.0
 40
4.0
 40
4.0
 40
4.0
 40
4.0
 10
28.38121337181095
 20
-2.431031629166547
 30
0.0
 10
28.38121337181095
 20
-2.431031629166547
 30
0.0
 10
28.5412380571008
 20
-2.431031629166547
 30
0.0
 10
28.5412380571008
 20
-2.431031629166547
 30
0.0
 10
28.5412380571008
 20
-2.431031629166547
 30
0.0
 10
28.5412380571008
 20
-2.69389241469111
 30
0.0
 10
28.5412380571008
 20
-2.69389241469111
 30
0.0
 10
28.5412380571008
 20
-2.69389241469111
 30
0.0
 10
28.38121337181095
 20
-2.69389241469111
 30
0.0
 10
28.38121337181095
 20
-2.69389241469111
 30
0.0
 10
28.38121337181095
 20
-2.69389241469111
 30
0.0
 10
28.38121337181095
 20
-2.431031629166547
 30
0.0
 10
28.38121337181095
 20
-2.431031629166547
 30
0.0
  0
HATCH
  5
BC
330
7D
100
AcDbEntity
  8
レイヤー 1
 62
   250
420
  4078137
440
 33554687
100
AcDbHatch
 10
0.0
 20
0.0
 30
0.0
210
0.0
220
0.0
230
1.0
  2
SOLID
 70
     1
 71
     1
 91
        2
 92
        1
 93
        1
 72
     4
 94
        3
 73
     0
 74
     0
 95
       17
 96
       13
 40
0.0
 40
0.0
 40
0.0
 40
0.0
 40
1.0
 40
1.0
 40
1.0
 40
2.0
 40
2.0
 40
2.0
 40
3.0
 40
3.0
 40
3.0
 40
4.0
 40
4.0
 40
4.0
 40
4.0
 10
28.38396944819915
 20
-2.973117403770609
 10
28.38396944819915
 20
-2.973117403770609
 10
28.5357259043244
 20
-2.973117403770609
 10
28.5357259043244
 20
-2.973117403770609
 10
28.5357259043244
 20
-2.973117403770609
 10
28.5357259043244
 20
-4.366141763231381
 10
28.5357259043244
 20
-4.366141763231381
 10
28.5357259043244
 20
-4.366141763231381
 10
28.38396944819915
 20
-4.366141763231381
 10
28.38396944819915
 20
-4.366141763231381
 10
28.38396944819915
 20
-4.366141763231381
 10
28.38396944819915
 20
-2.973117403770609
 10
28.38396944819915
 20
-2.973117403770609
 97
        0
 97
        1
330
BA
 92
        1
 93
        1
 72
     4
 94
        3
 73
     0
 74
     0
 95
       17
 96
       13
 40
0.0
 40
0.0
 40
0.0
 40
0.0
 40
1.0
 40
1.0
 40
1.0
 40
2.0
 40
2.0
 40
2.0
 40
3.0
 40
3.0
 40
3.0
 40
4.0
 40
4.0
 40
4.0
 40
4.0
 10
28.38121337181095
 20
-2.431031629166547
 10
28.38121337181095
 20
-2.431031629166547
 10
28.5412380571008
 20
-2.431031629166547
 10
28.5412380571008
 20
-2.431031629166547
 10
28.5412380571008
 20
-2.431031629166547
 10
28.5412380571008
 20
-2.69389241469111
 10
28.5412380571008
 20
-2.69389241469111
 10
28.5412380571008
 20
-2.69389241469111
 10
28.38121337181095
 20
-2.69389241469111
 10
28.38121337181095
 20
-2.69389241469111
 10
28.38121337181095
 20
-2.69389241469111
 10
28.38121337181095
 20
-2.431031629166547
 10
28.38121337181095
 20
-2.431031629166547
 97
        0
 97
        1
330
BB
 75
     2
 76
     1
 98
        1
 10
0.0
 20
0.0
450
        0
451
        0
460
0.0
461
0.0
452
        0
462
0.0
453
        0
470

  0
SPLINE
  5
BD
330
7D
100
AcDbEntity
  8
レイヤー 1
100
AcDbSpline
210
0.0
220
0.0
230
1.0
 70
     9
 71
     3
 72
    32
 73
    28
 74
     0
 42
0.0000000001
 43
0.0000000001
 40
0.0
 40
0.0
 40
0.0
 40
0.0
 40
1.0
 40
1.0
 40
1.0
 40
2.0
 40
2.0
 40
2.0
 40
3.0
 40
3.0
 40
3.0
 40
4.0
 40
4.0
 40
4.0
 40
5.0
 40
5.0
 40
5.0
 40
6.0
 40
6.0
 40
6.0
 40
7.0
 40
7.0
 40
7.0
 40
8.0
 40
8.0
 40
8.0
 40
9.0
 40
9.0
 40
9.0
 40
9.0
 10
29.73100178293183
 20
-3.666959634499927
 30
0.0
 10
29.73100178293183
 20
-3.264055717499958
 30
0.0
 10
29.61903617966122
 20
-3.062517631612843
 30
0.0
 10
29.39510497311998
 20
-3.062517631612843
 30
0.0
 10
29.31724581515333
 20
-3.062517631612843
 30
0.0
 10
29.25454507732178
 20
-3.085083007041229
 30
0.0
 10
29.20665825007681
 20
-3.130213757898002
 30
0.0
 10
29.15877142283184
 20
-3.175516763529037
 30
0.0
 10
29.12345919410803
 20
-3.235116915423859
 30
0.0
 10
29.10089381867964
 20
-3.309186468356731
 30
0.0
 10
29.07832844325125
 20
-3.383256021289602
 30
0.0
 10
29.06713188292419
 20
-3.465421548612811
 30
0.0
 10
29.06713188292419
 20
-3.555855305100619
 30
0.0
 10
29.06713188292419
 20
-3.555855305100619
 30
0.0
 10
29.06713188292419
 20
-3.780820040287434
 30
0.0
 10
29.06713188292419
 20
-3.780820040287434
 30
0.0
 10
29.06713188292419
 20
-3.872804089743604
 30
0.0
 10
29.07884520757404
 20
-3.956519910035175
 30
0.0
 10
29.10227185687374
 20
-4.031450736839359
 30
0.0
 10
29.12569850617344
 20
-4.106381563643544
 30
0.0
 10
29.16187200876856
 20
-4.165981715538365
 30
0.0
 10
29.21079236465911
 20
-4.210251192523826
 30
0.0
 10
29.25954046577539
 20
-4.254520669509286
 30
0.0
 10
29.32086316541284
 20
-4.276741535389148
 30
0.0
 10
29.39510497311998
 20
-4.276741535389148
 30
0.0
 10
29.61903617966122
 20
-4.276741535389148
 30
0.0
 10
29.73100178293183
 20
-4.073480901759407
 30
0.0
 10
29.73100178293183
 20
-3.666959634499927
 30
0.0
  0
SPLINE
  5
BE
330
7D
100
AcDbEntity
  8
レイヤー 1
100
AcDbSpline
210
0.0
220
0.0
230
1.0
 70
    11
 71
     3
 72
    41
 73
    37
 74
     0
 42
0.0000000001
 43
0.0000000001
 40
0.0
 40
0.0
 40
0.0
 40
0.0
 40
1.0
 40
1.0
 40
1.0
 40
2.0
 40
2.0
 40
2.0
 40
3.0
 40
3.0
 40
3.0
 40
4.0
 40
4.0
 40
4.0
 40
5.0
 40
5.0
 40
5.0
 40
6.0
 40
6.0
 40
6.0
 40
7.0
 40
7.0
 40
7.0
 40
8.0
 40
8.0
 40
8.0
 40
9.0
 40
9.0
 40
9.0
 40
10.0
 40
10.0
 40
10.0
 40
11.0
 40
11.0
 40
11.0
 40
12.0
 40
12.0
 40
12.0
 40
12.0
 10
28.92071532480107
 20
-2.973117403770609
 30
0.0
 10
28.92071532480107
 20
-2.973117403770609
 30
0.0
 10
29.07247178092633
 20
-2.973117403770609
 30
0.0
 10
29.07247178092633
 20
-2.973117403770609
 30
0.0
 10
29.07247178092633
 20
-2.973117403770609
 30
0.0
 10
29.07247178092633
 20
-3.17362196101215
 30
0.0
 10
29.07247178092633
 20
-3.17362196101215
 30
0.0
 10
29.15377603437823
 20
-3.011013454108357
 30
0.0
 10
29.27400986681345
 20
-2.929709200656461
 30
0.0
 10
29.43300102345773
 20
-2.929709200656461
 30
0.0
 10
29.58114012932347
 20
-2.929709200656461
 30
0.0
 10
29.6953450446595
 20
-2.992926702810796
 30
0.0
 10
29.77578802424008
 20
-3.119361707119465
 30
0.0
 10
29.85623100382067
 20
-3.245968966202396
 30
0.0
 10
29.89636636622383
 20
-3.427525498275063
 30
0.0
 10
29.89636636622383
 20
-3.664203558111727
 30
0.0
 10
29.89636636622383
 20
-3.899159070205766
 30
0.0
 10
29.85536972994935
 20
-4.082093640472532
 30
0.0
 10
29.77303194785188
 20
-4.213007268912026
 30
0.0
 10
29.69086642052868
 20
-4.344093152125782
 30
0.0
 10
29.57476670267575
 20
-4.409549966345529
 30
0.0
 10
29.42490504906739
 20
-4.409549966345529
 30
0.0
 10
29.35066324136025
 20
-4.409549966345529
 30
0.0
 10
29.28296711507509
 20
-4.388707138659768
 30
0.0
 10
29.22164441543765
 20
-4.347193738062506
 30
0.0
 10
29.16014946102594
 20
-4.305680337465246
 30
0.0
 10
29.11036783126407
 20
-4.247802733313049
 30
0.0
 10
29.07247178092633
 20
-4.173733180380177
 30
0.0
 10
29.07247178092633
 20
-4.173733180380177
 30
0.0
 10
29.07247178092633
 20
-4.891863334280506
 30
0.0
 10
29.07247178092633
 20
-4.891863334280506
 30
0.0
 10
29.07247178092633
 20
-4.891863334280506
 30
0.0
 10
28.92071532480107
 20
-4.891863334280506
 30
0.0
 10
28.92071532480107
 20
-4.891863334280506
 30
0.0
 10
28.92071532480107
 20
-4.891863334280506
 30
0.0
 10
28.92071532480107
 20
-2.973117403770609
 30
0.0
 10
28.92071532480107
 20
-2.973117403770609
 30
0.0
  0
HATCH
  5
BF
330
7D
100
AcDbEntity
  8
レイヤー 1
 62
   250
420
  4078137
440
 33554687
100
AcDbHatch
 10
0.0
 20
0.0
 30
0.0
210
0.0
220
0.0
230
1.0
  2
SOLID
 70
     1
 71
     1
 91
        2
 92
        1
 93
        1
 72
     4
 94
        3
 73
     0
 74
     0
 95
       32
 96
       28
 40
0.0
 40
0.0
 40
0.0
 40
0.0
 40
1.0
 40
1.0
 40
1.0
 40
2.0
 40
2.0
 40
2.0
 40
3.0
 40
3.0
 40
3.0
 40
4.0
 40
4.0
 40
4.0
 40
5.0
 40
5.0
 40
5.0
 40
6.0
 40
6.0
 40
6.0
 40
7.0
 40
7.0
 40
7.0
 40
8.0
 40
8.0
 40
8.0
 40
9.0
 40
9.0
 40
9.0
 40
9.0
 10
29.73100178293183
 20
-3.666959634499927
 10
29.73100178293183
 20
-3.264055717499958
 10
29.61903617966122
 20
-3.062517631612843
 10
29.39510497311998
 20
-3.062517631612843
 10
29.31724581515333
 20
-3.062517631612843
 10
29.25454507732178
 20
-3.085083007041229
 10
29.20665825007681
 20
-3.130213757898002
 10
29.15877142283184
 20
-3.175516763529037
 10
29.12345919410803
 20
-3.235116915423859
 10
29.10089381867964
 20
-3.309186468356731
 10
29.07832844325125
 20
-3.383256021289602
 10
29.06713188292419
 20
-3.465421548612811
 10
29.06713188292419
 20
-3.555855305100619
 10
29.06713188292419
 20
-3.555855305100619
 10
29.06713188292419
 20
-3.780820040287434
 10
29.06713188292419
 20
-3.780820040287434
 10
29.06713188292419
 20
-3.872804089743604
 10
29.07884520757404
 20
-3.956519910035175
 10
29.10227185687374
 20
-4.031450736839359
 10
29.12569850617344
 20
-4.106381563643544
 10
29.16187200876856
 20
-4.165981715538365
 10
29.21079236465911
 20
-4.210251192523826
 10
29.25954046577539
 20
-4.254520669509286
 10
29.32086316541284
 20
-4.276741535389148
 10
29.39510497311998
 20
-4.276741535389148
 10
29.61903617966122
 20
-4.276741535389148
 10
29.73100178293183
 20
-4.073480901759407
 10
29.73100178293183
 20
-3.666959634499927
 97
        0
 97
        1
330
BD
 92
        1
 93
        1
 72
     4
 94
        3
 73
     0
 74
     0
 95
       41
 96
       37
 40
0.0
 40
0.0
 40
0.0
 40
0.0
 40
1.0
 40
1.0
 40
1.0
 40
2.0
 40
2.0
 40
2.0
 40
3.0
 40
3.0
 40
3.0
 40
4.0
 40
4.0
 40
4.0
 40
5.0
 40
5.0
 40
5.0
 40
6.0
 40
6.0
 40
6.0
 40
7.0
 40
7.0
 40
7.0
 40
8.0
 40
8.0
 40
8.0
 40
9.0
 40
9.0
 40
9.0
 40
10.0
 40
10.0
 40
10.0
 40
11.0
 40
11.0
 40
11.0
 40
12.0
 40
12.0
 40
12.0
 40
12.0
 10
28.92071532480107
 20
-2.973117403770609
 10
28.92071532480107
 20
-2.973117403770609
 10
29.07247178092633
 20
-2.973117403770609
 10
29.07247178092633
 20
-2.973117403770609
 10
29.07247178092633
 20
-2.973117403770609
 10
29.07247178092633
 20
-3.17362196101215
 10
29.07247178092633
 20
-3.17362196101215
 10
29.15377603437823
 20
-3.011013454108357
 10
29.27400986681345
 20
-2.929709200656461
 10
29.43300102345773
 20
-2.929709200656461
 10
29.58114012932347
 20
-2.929709200656461
 10
29.6953450446595
 20
-2.992926702810796
 10
29.77578802424008
 20
-3.119361707119465
 10
29.85623100382067
 20
-3.245968966202396
 10
29.89636636622383
 20
-3.427525498275063
 10
29.89636636622383
 20
-3.664203558111727
 10
29.89636636622383
 20
-3.899159070205766
 10
29.85536972994935
 20
-4.082093640472532
 10
29.77303194785188
 20
-4.213007268912026
 10
29.69086642052868
 20
-4.344093152125782
 10
29.57476670267575
 20
-4.409549966345529
 10
29.42490504906739
 20
-4.409549966345529
 10
29.35066324136025
 20
-4.409549966345529
 10
29.28296711507509
 20
-4.388707138659768
 10
29.22164441543765
 20
-4.347193738062506
 10
29.16014946102594
 20
-4.305680337465246
 10
29.11036783126407
 20
-4.247802733313049
 10
29.07247178092633
 20
-4.173733180380177
 10
29.07247178092633
 20
-4.173733180380177
 10
29.07247178092633
 20
-4.891863334280506
 10
29.07247178092633
 20
-4.891863334280506
 10
29.07247178092633
 20
-4.891863334280506
 10
28.92071532480107
 20
-4.891863334280506
 10
28.92071532480107
 20
-4.891863334280506
 10
28.92071532480107
 20
-4.891863334280506
 10
28.92071532480107
 20
-2.973117403770609
 10
28.92071532480107
 20
-2.973117403770609
 97
        0
 97
        1
330
BE
 75
     2
 76
     1
 98
        1
 10
0.0
 20
0.0
450
        0
451
        0
460
0.0
461
0.0
452
        0
462
0.0
453
        0
470

  0
ENDBLK
  5
80
330
7D
100
AcDbEntity
  8
0
100
AcDbBlockEnd
  0
BLOCK
  5
C2
330
C0
100
AcDbEntity
  8
0
100
AcDbBlockBegin
  2
Block_2
 70
     0
 10
0.0
 20
0.0
 30
0.0
  3
Block_2
  1

  0
LWPOLYLINE
  5
C4
330
C0
100
AcDbEntity
  8
レイヤー 1
 62
   250
420
  4078137
370
    18
100
AcDbPolyline
 90
       12
 70
     1
 43
0.0
 10
37.23098075827044
 20
-49.51008335312343
 10
46.73049256145137
 20
-49.51008335312343
 10
46.73049256145137
 20
-45.01008529869284
 10
56.73022561450695
 20
-45.01008529869284
 10
56.73022561450695
 20
-49.51008335312343
 10
66.22971977879817
 20
-49.51008335312343
 10
66.22971977879817
 20
-48.0107777979427
 10
58.23090700302056
 20
-48.0107777979427
 10
58.23090700302056
 20
-43.50940391017922
 10
45.22981117293777
 20
-43.50940391017922
 10
45.22981117293777
 20
-48.0107777979427
 10
37.23098075827044
 20
-48.0107777979427
  0
INSERT
  5
C6
330
C0
100
AcDbEntity
  8
レイヤー 1
100
AcDbBlockReference
  2
Block_3
 10
0.0
 20
0.0
 30
0.0
  0
ENDBLK
  5
C3
330
C0
100
AcDbEntity
  8
0
100
AcDbBlockEnd
  0
BLOCK
  5
C7
330
C5
100
AcDbEntity
  8
0
100
AcDbBlockBegin
  2
Block_3
 70
     0
 10
0.0
 20
0.0
 30
0.0
  3
Block_3
  1

  0
SPLINE
  5
C9
330
C5
100
AcDbEntity
  8
レイヤー 1
 62
   250
420
  4078137
370
    18
100
AcDbSpline
210
0.0
220
0.0
230
1.0
 70
     9
 71
     3
 72
    14
 73
    10
 74
     0
 42
0.0000000001
 43
0.0000000001
 40
0.0
 40
0.0
 40
0.0
 40
0.0
 40
1.0
 40
1.0
 40
1.0
 40
2.0
 40
2.0
 40
2.0
 40
3.0
 40
3.0
 40
3.0
 40
3.0
 10
56.73505867006113
 20
-45.62469474298384
 30
0.0
 10
56.51457255900513
 20
-45.62469474298384
 30
0.0
 10
56.33543200349457
 20
-45.80454085404992
 30
0.0
 10
56.33543200349457
 20
-46.02432140955039
 30
0.0
 10
56.33543200349457
 20
-46.24480752060637
 30
0.0
 10
56.51457255900513
 20
-46.42465363167246
 30
0.0
 10
56.73505867006113
 20
-46.42465363167246
 30
0.0
 10
56.73505867006113
 20
-46.42465363167246
 30
0.0
 10
56.73505867006113
 20
-45.62469474298384
 30
0.0
 10
56.73505867006113
 20
-45.62469474298384
 30
0.0
  0
HATCH
  5
CA
330
C5
100
AcDbEntity
  8
レイヤー 1
 62
    41
420
 16569996
440
 33554687
100
AcDbHatch
 10
0.0
 20
0.0
 30
0.0
210
0.0
220
0.0
230
1.0
  2
SOLID
 70
     1
 71
     1
 91
        1
 92
        1
 93
        1
 72
     4
 94
        3
 73
     0
 74
     0
 95
       14
 96
       10
 40
0.0
 40
0.0
 40
0.0
 40
0.0
 40
1.0
 40
1.0
 40
1.0
 40
2.0
 40
2.0
 40
2.0
 40
3.0
 40
3.0
 40
3.0
 40
3.0
 10
56.73505867006113
 20
-45.62469474298384
 10
56.51457255900513
 20
-45.62469474298384
 10
56.33543200349457
 20
-45.80454085404992
 10
56.33543200349457
 20
-46.02432140955039
 10
56.33543200349457
 20
-46.24480752060637
 10
56.51457255900513
 20
-46.42465363167246
 10
56.73505867006113
 20
-46.42465363167246
 10
56.73505867006113
 20
-46.42465363167246
 10
56.73505867006113
 20
-45.62469474298384
 10
56.73505867006113
 20
-45.62469474298384
 97
        0
 97
        1
330
C9
 75
     2
 76
     1
 98
        1
 10
0.0
 20
0.0
450
        0
451
        0
460
0.0
461
0.0
452
        0
462
0.0
453
        0
470

  0
SPLINE
  5
CB
330
C5
100
AcDbEntity
  8
レイヤー 1
 62
   250
420
  4078137
370
    18
100
AcDbSpline
210
0.0
220
0.0
230
1.0
 70
     9
 71
     3
 72
    14
 73
    10
 74
     0
 42
0.0000000001
 43
0.0000000001
 40
0.0
 40
0.0
 40
0.0
 40
0.0
 40
1.0
 40
1.0
 40
1.0
 40
2.0
 40
2.0
 40
2.0
 40
3.0
 40
3.0
 40
3.0
 40
3.0
 10
46.73670145033844
 20
-46.4239833538951
 30
0.0
 10
46.9558117280609
 20
-46.4239833538951
 30
0.0
 10
47.13632811690499
 20
-46.24480752060637
 30
0.0
 10
47.13632811690499
 20
-46.02432140955039
 30
0.0
 10
47.13632811690499
 20
-45.8038352984944
 30
0.0
 10
46.9558117280609
 20
-45.62469474298384
 30
0.0
 10
46.73670145033844
 20
-45.62469474298384
 30
0.0
 10
46.73670145033844
 20
-45.62469474298384
 30
0.0
 10
46.73670145033844
 20
-46.4239833538951
 30
0.0
 10
46.73670145033844
 20
-46.4239833538951
 30
0.0
  0
HATCH
  5
CC
330
C5
100
AcDbEntity
  8
レイヤー 1
 62
    41
420
 16569996
440
 33554687
100
AcDbHatch
 10
0.0
 20
0.0
 30
0.0
210
0.0
220
0.0
230
1.0
  2
SOLID
 70
     1
 71
     1
 91
        1
 92
        1
 93
        1
 72
     4
 94
        3
 73
     0
 74
     0
 95
       14
 96
       10
 40
0.0
 40
0.0
 40
0.0
 40
0.0
 40
1.0
 40
1.0
 40
1.0
 40
2.0
 40
2.0
 40
2.0
 40
3.0
 40
3.0
 40
3.0
 40
3.0
 10
46.73670145033844
 20
-46.4239833538951
 10
46.9558117280609
 20
-46.4239833538951
 10
47.13632811690499
 20
-46.24480752060637
 10
47.13632811690499
 20
-46.02432140955039
 10
47.13632811690499
 20
-45.8038352984944
 10
46.9558117280609
 20
-45.62469474298384
 10
46.73670145033844
 20
-45.62469474298384
 10
46.73670145033844
 20
-45.62469474298384
 10
46.73670145033844
 20
-46.4239833538951
 10
46.73670145033844
 20
-46.4239833538951
 97
        0
 97
        1
330
CB
 75
     2
 76
     1
 98
        1
 10
0.0
 20
0.0
450
        0
451
        0
460
0.0
461
0.0
452
        0
462
0.0
453
        0
470

  0
ENDBLK
  5
C8
330
C5
100
AcDbEntity
  8
0
100
AcDbBlockEnd
  0
BLOCK
  5
D0
330
CE
100
AcDbEntity
  8
0
100
AcDbBlockBegin
  2
Block_4
 70
     0
 10
0.0
 20
0.0
 30
0.0
  3
Block_4
  1

  0
SPLINE
  5
D2
330
CE
100
AcDbEntity
  8
レイヤー 1
100
AcDbSpline
210
0.0
220
0.0
230
1.0
 70
     9
 71
     3
 72
    29
 73
    25
 74
     0
 42
0.0000000001
 43
0.0000000001
 40
0.0
 40
0.0
 40
0.0
 40
0.0
 40
1.0
 40
1.0
 40
1.0
 40
2.0
 40
2.0
 40
2.0
 40
3.0
 40
3.0
 40
3.0
 40
4.0
 40
4.0
 40
4.0
 40
5.0
 40
5.0
 40
5.0
 40
6.0
 40
6.0
 40
6.0
 40
7.0
 40
7.0
 40
7.0
 40
8.0
 40
8.0
 40
8.0
 40
8.0
 10
33.02158473566822
 20
-47.07481823909935
 30
0.0
 10
33.16162786714362
 20
-47.07481823909935
 30
0.0
 10
33.27273219654293
 20
-47.04364012495783
 30
0.0
 10
33.3550699786404
 20
-46.98111164190055
 30
0.0
 10
33.43740776073787
 20
-46.91841090406901
 30
0.0
 10
33.47857665178661
 20
-46.83452282900318
 30
0.0
 10
33.47857665178661
 20
-46.72910290715453
 30
0.0
 10
33.47857665178661
 20
-46.61885985162654
 30
0.0
 10
33.43981932757755
 20
-46.53411050268939
 30
0.0
 10
33.36247693393369
 20
-46.47485486034309
 30
0.0
 10
33.28513454028983
 20
-46.4155992179968
 30
0.0
 10
33.17471922998758
 20
-46.38597139682365
 30
0.0
 10
33.03157551257545
 20
-46.38597139682365
 30
0.0
 10
32.89325492884266
 20
-46.38597139682365
 30
0.0
 10
32.7869737331227
 20
-46.41508245367401
 30
0.0
 10
32.71290418018983
 20
-46.47364907692326
 30
0.0
 10
32.63883462725696
 20
-46.53204344539824
 30
0.0
 10
32.60179985079052
 20
-46.61472573704424
 30
0.0
 10
32.60179985079052
 20
-46.72169595186124
 30
0.0
 10
32.60179985079052
 20
-46.83038871442088
 30
0.0
 10
32.63935139157974
 20
-46.91651610155212
 30
0.0
 10
32.71428221838393
 20
-46.97973360370645
 30
0.0
 10
32.78921304518811
 20
-47.04312336063505
 30
0.0
 10
32.8917046358743
 20
-47.07481823909935
 30
0.0
 10
33.02158473566822
 20
-47.07481823909935
 30
0.0
  0
SPLINE
  5
D3
330
CE
100
AcDbEntity
  8
レイヤー 1
100
AcDbSpline
210
0.0
220
0.0
230
1.0
 70
     9
 71
     3
 72
    53
 73
    49
 74
     0
 42
0.0000000001
 43
0.0000000001
 40
0.0
 40
0.0
 40
0.0
 40
0.0
 40
1.0
 40
1.0
 40
1.0
 40
2.0
 40
2.0
 40
2.0
 40
3.0
 40
3.0
 40
3.0
 40
4.0
 40
4.0
 40
4.0
 40
5.0
 40
5.0
 40
5.0
 40
6.0
 40
6.0
 40
6.0
 40
7.0
 40
7.0
 40
7.0
 40
8.0
 40
8.0
 40
8.0
 40
9.0
 40
9.0
 40
9.0
 40
10.0
 40
10.0
 40
10.0
 40
11.0
 40
11.0
 40
11.0
 40
12.0
 40
12.0
 40
12.0
 40
13.0
 40
13.0
 40
13.0
 40
14.0
 40
14.0
 40
14.0
 40
15.0
 40
15.0
 40
15.0
 40
16.0
 40
16.0
 40
16.0
 40
16.0
 10
32.78955755473664
 20
-47.23535968871199
 30
0.0
 10
32.13602294118475
 20
-47.23535968871199
 30
0.0
 10
31.80908337963454
 20
-47.05673148780179
 30
0.0
 10
31.80908337963454
 20
-46.69947508598138
 30
0.0
 10
31.80908337963454
 20
-46.46744790504981
 30
0.0
 10
31.93672416736304
 20
-46.32671575447735
 30
0.0
 10
32.19200574282006
 20
-46.27727863426401
 30
0.0
 10
32.19200574282006
 20
-46.27727863426401
 30
0.0
 10
32.21422660869992
 20
-46.40819226270351
 30
0.0
 10
32.21422660869992
 20
-46.40819226270351
 30
0.0
 10
32.11707491601587
 20
-46.42955185471206
 30
0.0
 10
32.04662271334252
 20
-46.46365830001602
 30
0.0
 10
32.00304225545411
 20
-46.51068385338969
 30
0.0
 10
31.95946179756569
 20
-46.55753715198908
 30
0.0
 10
31.93758544123435
 20
-46.62299396620883
 30
0.0
 10
31.93758544123435
 20
-46.70688204127467
 30
0.0
 10
31.93758544123435
 20
-46.8321112621635
 30
0.0
 10
31.99856363132328
 20
-46.92667913323361
 30
0.0
 10
32.12034775672686
 20
-46.99093016403351
 30
0.0
 10
32.24213188213044
 20
-47.05518119483342
 30
0.0
 10
32.43057860517361
 20
-47.08963214968592
 30
0.0
 10
32.68586018063062
 20
-47.09462753813954
 30
0.0
 10
32.68586018063062
 20
-47.09462753813954
 30
0.0
 10
32.73770886768363
 20
-47.09462753813954
 30
0.0
 10
32.73770886768363
 20
-47.09462753813954
 30
0.0
 10
32.65537108558616
 20
-47.05673148780179
 30
0.0
 10
32.59112005478626
 20
-47.00281574345763
 30
0.0
 10
32.54512803005817
 20
-46.93288030510706
 30
0.0
 10
32.49896375055582
 20
-46.86294486675648
 30
0.0
 10
32.47588161080464
 20
-46.78353541582148
 30
0.0
 10
32.47588161080464
 20
-46.69465195230203
 30
0.0
 10
32.47588161080464
 20
-46.55460882082663
 30
0.0
 10
32.52497422146945
 20
-46.44471027484716
 30
0.0
 10
32.62281493325055
 20
-46.36495631436362
 30
0.0
 10
32.7208278998059
 20
-46.28503009910582
 30
0.0
 10
32.85622015237623
 20
-46.24506699147693
 30
0.0
 10
33.0289916909615
 20
-46.24506699147693
 30
0.0
 10
33.20520832503203
 20
-46.24506699147693
 30
0.0
 10
33.34559596605597
 20
-46.28916421368812
 30
0.0
 10
33.4501546140333
 20
-46.37718640333626
 30
0.0
 10
33.55471326201063
 20
-46.46538084775865
 30
0.0
 10
33.60690645861217
 20
-46.58337536812847
 30
0.0
 10
33.60690645861217
 20
-46.73168672876847
 30
0.0
 10
33.60690645861217
 20
-46.90118542664276
 30
0.0
 10
33.53989935142406
 20
-47.02762043095143
 30
0.0
 10
33.40571288227358
 20
-47.11064723214595
 30
0.0
 10
33.27152641312309
 20
-47.19384628811473
 30
0.0
 10
33.06602646742794
 20
-47.23535968871199
 30
0.0
 10
32.78955755473664
 20
-47.23535968871199
 30
0.0
  0
HATCH
  5
D4
330
CE
100
AcDbEntity
  8
レイヤー 1
 62
   250
420
  4078137
440
 33554687
100
AcDbHatch
 10
0.0
 20
0.0
 30
0.0
210
0.0
220
0.0
230
1.0
  2
SOLID
 70
     1
 71
     1
 91
        2
 92
        1
 93
        1
 72
     4
 94
        3
 73
     0
 74
     0
 95
       29
 96
       25
 40
0.0
 40
0.0
 40
0.0
 40
0.0
 40
1.0
 40
1.0
 40
1.0
 40
2.0
 40
2.0
 40
2.0
 40
3.0
 40
3.0
 40
3.0
 40
4.0
 40
4.0
 40
4.0
 40
5.0
 40
5.0
 40
5.0
 40
6.0
 40
6.0
 40
6.0
 40
7.0
 40
7.0
 40
7.0
 40
8.0
 40
8.0
 40
8.0
 40
8.0
 10
33.02158473566822
 20
-47.07481823909935
 10
33.16162786714362
 20
-47.07481823909935
 10
33.27273219654293
 20
-47.04364012495783
 10
33.3550699786404
 20
-46.98111164190055
 10
33.43740776073787
 20
-46.91841090406901
 10
33.47857665178661
 20
-46.83452282900318
 10
33.47857665178661
 20
-46.72910290715453
 10
33.47857665178661
 20
-46.61885985162654
 10
33.43981932757755
 20
-46.53411050268939
 10
33.36247693393369
 20
-46.47485486034309
 10
33.28513454028983
 20
-46.4155992179968
 10
33.17471922998758
 20
-46.38597139682365
 10
33.03157551257545
 20
-46.38597139682365
 10
32.89325492884266
 20
-46.38597139682365
 10
32.7869737331227
 20
-46.41508245367401
 10
32.71290418018983
 20
-46.47364907692326
 10
32.63883462725696
 20
-46.53204344539824
 10
32.60179985079052
 20
-46.61472573704424
 10
32.60179985079052
 20
-46.72169595186124
 10
32.60179985079052
 20
-46.83038871442088
 10
32.63935139157974
 20
-46.91651610155212
 10
32.71428221838393
 20
-46.97973360370645
 10
32.78921304518811
 20
-47.04312336063505
 10
32.8917046358743
 20
-47.07481823909935
 10
33.02158473566822
 20
-47.07481823909935
 97
        0
 97
        1
330
D2
 92
        1
 93
        1
 72
     4
 94
        3
 73
     0
 74
     0
 95
       53
 96
       49
 40
0.0
 40
0.0
 40
0.0
 40
0.0
 40
1.0
 40
1.0
 40
1.0
 40
2.0
 40
2.0
 40
2.0
 40
3.0
 40
3.0
 40
3.0
 40
4.0
 40
4.0
 40
4.0
 40
5.0
 40
5.0
 40
5.0
 40
6.0
 40
6.0
 40
6.0
 40
7.0
 40
7.0
 40
7.0
 40
8.0
 40
8.0
 40
8.0
 40
9.0
 40
9.0
 40
9.0
 40
10.0
 40
10.0
 40
10.0
 40
11.0
 40
11.0
 40
11.0
 40
12.0
 40
12.0
 40
12.0
 40
13.0
 40
13.0
 40
13.0
 40
14.0
 40
14.0
 40
14.0
 40
15.0
 40
15.0
 40
15.0
 40
16.0
 40
16.0
 40
16.0
 40
16.0
 10
32.78955755473664
 20
-47.23535968871199
 10
32.13602294118475
 20
-47.23535968871199
 10
31.80908337963454
 20
-47.05673148780179
 10
31.80908337963454
 20
-46.69947508598138
 10
31.80908337963454
 20
-46.46744790504981
 10
31.93672416736304
 20
-46.32671575447735
 10
32.19200574282006
 20
-46.27727863426401
 10
32.19200574282006
 20
-46.27727863426401
 10
32.21422660869992
 20
-46.40819226270351
 10
32.21422660869992
 20
-46.40819226270351
 10
32.11707491601587
 20
-46.42955185471206
 10
32.04662271334252
 20
-46.46365830001602
 10
32.00304225545411
 20
-46.51068385338969
 10
31.95946179756569
 20
-46.55753715198908
 10
31.93758544123435
 20
-46.62299396620883
 10
31.93758544123435
 20
-46.70688204127467
 10
31.93758544123435
 20
-46.8321112621635
 10
31.99856363132328
 20
-46.92667913323361
 10
32.12034775672686
 20
-46.99093016403351
 10
32.24213188213044
 20
-47.05518119483342
 10
32.43057860517361
 20
-47.08963214968592
 10
32.68586018063062
 20
-47.09462753813954
 10
32.68586018063062
 20
-47.09462753813954
 10
32.73770886768363
 20
-47.09462753813954
 10
32.73770886768363
 20
-47.09462753813954
 10
32.65537108558616
 20
-47.05673148780179
 10
32.59112005478626
 20
-47.00281574345763
 10
32.54512803005817
 20
-46.93288030510706
 10
32.49896375055582
 20
-46.86294486675648
 10
32.47588161080464
 20
-46.78353541582148
 10
32.47588161080464
 20
-46.69465195230203
 10
32.47588161080464
 20
-46.55460882082663
 10
32.52497422146945
 20
-46.44471027484716
 10
32.62281493325055
 20
-46.36495631436362
 10
32.7208278998059
 20
-46.28503009910582
 10
32.85622015237623
 20
-46.24506699147693
 10
33.0289916909615
 20
-46.24506699147693
 10
33.20520832503203
 20
-46.24506699147693
 10
33.34559596605597
 20
-46.28916421368812
 10
33.4501546140333
 20
-46.37718640333626
 10
33.55471326201063
 20
-46.46538084775865
 10
33.60690645861217
 20
-46.58337536812847
 10
33.60690645861217
 20
-46.73168672876847
 10
33.60690645861217
 20
-46.90118542664276
 10
33.53989935142406
 20
-47.02762043095143
 10
33.40571288227358
 20
-47.11064723214595
 10
33.27152641312309
 20
-47.19384628811473
 10
33.06602646742794
 20
-47.23535968871199
 10
32.78955755473664
 20
-47.23535968871199
 97
        0
 97
        1
330
D3
 75
     2
 76
     1
 98
        1
 10
0.0
 20
0.0
450
        0
451
        0
460
0.0
461
0.0
452
        0
462
0.0
453
        0
470

  0
ENDBLK
  5
D1
330
CE
100
AcDbEntity
  8
0
100
AcDbBlockEnd
  0
BLOCK
  5
D7
330
D5
100
AcDbEntity
  8
0
100
AcDbBlockBegin
  2
Block_5
 70
     0
 10
0.0
 20
0.0
 30
0.0
  3
Block_5
  1

  0
INSERT
  5
DA
330
D5
100
AcDbEntity
  8
レイヤー 1
100
AcDbBlockReference
  2
Block_6
 10
0.0
 20
0.0
 30
0.0
  0
ENDBLK
  5
D8
330
D5
100
AcDbEntity
  8
0
100
AcDbBlockEnd
  0
BLOCK
  5
DB
330
D9
100
AcDbEntity
  8
0
100
AcDbBlockBegin
  2
Block_6
 70
     0
 10
0.0
 20
0.0
 30
0.0
  3
Block_6
  1

  0
SPLINE
  5
DD
330
D9
100
AcDbEntity
  8
レイヤー 1
100
AcDbSpline
210
0.0
220
0.0
230
1.0
 70
     9
 71
     3
 72
    71
 73
    67
 74
     0
 42
0.0000000001
 43
0.0000000001
 40
0.0
 40
0.0
 40
0.0
 40
0.0
 40
1.0
 40
1.0
 40
1.0
 40
2.0
 40
2.0
 40
2.0
 40
3.0
 40
3.0
 40
3.0
 40
4.0
 40
4.0
 40
4.0
 40
5.0
 40
5.0
 40
5.0
 40
6.0
 40
6.0
 40
6.0
 40
7.0
 40
7.0
 40
7.0
 40
8.0
 40
8.0
 40
8.0
 40
9.0
 40
9.0
 40
9.0
 40
10.0
 40
10.0
 40
10.0
 40
11.0
 40
11.0
 40
11.0
 40
12.0
 40
12.0
 40
12.0
 40
13.0
 40
13.0
 40
13.0
 40
14.0
 40
14.0
 40
14.0
 40
15.0
 40
15.0
 40
15.0
 40
16.0
 40
16.0
 40
16.0
 40
17.0
 40
17.0
 40
17.0
 40
18.0
 40
18.0
 40
18.0
 40
19.0
 40
19.0
 40
19.0
 40
20.0
 40
20.0
 40
20.0
 40
21.0
 40
21.0
 40
21.0
 40
22.0
 40
22.0
 40
22.0
 40
22.0
 10
50.63945853768736
 20
-54.57237954364857
 30
0.0
 10
50.70698240919825
 20
-54.50485567213767
 30
0.0
 10
50.77037216612685
 20
-54.43802081972383
 30
0.0
 10
50.82962780847315
 20
-54.37221949595556
 30
0.0
 10
50.88888345081945
 20
-54.30641817218728
 30
0.0
 10
50.95399575549067
 20
-54.23407116699704
 30
0.0
 10
51.02462021293829
 20
-54.1548339708363
 30
0.0
 10
51.1269395488502
 20
-54.03976778162895
 30
0.0
 10
51.20583223546243
 20
-53.94227157939638
 30
0.0
 10
51.261987291872
 20
-53.86234536413859
 30
0.0
 10
51.31779783873305
 20
-53.78241914888079
 30
0.0
 10
51.3570719272649
 20
-53.70869410549644
 30
0.0
 10
51.3791205383705
 20
-53.64117023398554
 30
0.0
 10
51.40151365902462
 20
-53.57364636247464
 30
0.0
 10
51.41253796457743
 20
-53.50302190502702
 30
0.0
 10
51.41253796457743
 20
-53.42895235209415
 30
0.0
 10
51.41253796457743
 20
-53.3152642010809
 30
0.0
 10
51.386010729341
 20
-53.22741426620703
 30
0.0
 10
51.33330076841668
 20
-53.16471352837549
 30
0.0
 10
51.28059080749235
 20
-53.10201279054394
 30
0.0
 10
51.20583223546243
 20
-53.0710069311767
 30
0.0
 10
51.10868054277839
 20
-53.0710069311767
 30
0.0
 10
50.92919106799687
 20
-53.0710069311767
 30
0.0
 10
50.81481389788657
 20
-53.18607312038404
 30
0.0
 10
50.7655490324475
 20
-53.41655000834725
 30
0.0
 10
50.7655490324475
 20
-53.41655000834725
 30
0.0
 10
50.62981227032866
 20
-53.39450139724165
 30
0.0
 10
50.62981227032866
 20
-53.39450139724165
 30
0.0
 10
50.65599499601656
 20
-53.24946287731264
 30
0.0
 10
50.71249456197466
 20
-53.13715276449349
 30
0.0
 10
50.79896645865442
 20
-53.05722654923569
 30
0.0
 10
50.88509384578568
 20
-52.9773003339779
 30
0.0
 10
50.99258082492546
 20
-52.937337226349
 30
0.0
 10
51.12108288652528
 20
-52.937337226349
 30
0.0
 10
51.25613062954708
 20
-52.937337226349
 30
0.0
 10
51.36361760868688
 20
-52.98074542946315
 30
0.0
 10
51.44319931439614
 20
-53.06721732614292
 30
0.0
 10
51.52312552965394
 20
-53.15368922282269
 30
0.0
 10
51.56308863728284
 20
-53.27013345022414
 30
0.0
 10
51.56308863728284
 20
-53.41655000834725
 30
0.0
 10
51.56308863728284
 20
-53.4971652427021
 30
0.0
 10
51.55034178398742
 20
-53.5757134197658
 30
0.0
 10
51.52484807739657
 20
-53.65253904908687
 30
0.0
 10
51.49935437080571
 20
-53.72902016885941
 30
0.0
 10
51.45560165814305
 20
-53.81204697005394
 30
0.0
 10
51.39393444895707
 20
-53.90196396221895
 30
0.0
 10
51.33226723977109
 20
-53.99153644483545
 30
0.0
 10
51.24717338128543
 20
-54.09730087623263
 30
0.0
 10
51.13830836395154
 20
-54.21925725641046
 30
0.0
 10
51.08077526934787
 20
-54.28333603243611
 30
0.0
 10
51.02944334661764
 20
-54.34086912703978
 30
0.0
 10
50.98396808621235
 20
-54.39185654022148
 30
0.0
 10
50.93883733535557
 20
-54.4431884629517
 30
0.0
 10
50.88716090307682
 20
-54.49899900981275
 30
0.0
 10
50.82962780847315
 20
-54.55997719990167
 30
0.0
 10
50.82962780847315
 20
-54.55997719990167
 30
0.0
 10
51.60029566852354
 20
-54.55997719990167
 30
0.0
 10
51.60029566852354
 20
-54.55997719990167
 30
0.0
 10
51.60029566852354
 20
-54.55997719990167
 30
0.0
 10
51.57307941419007
 20
-54.69089082834116
 30
0.0
 10
51.57307941419007
 20
-54.69089082834116
 30
0.0
 10
51.57307941419007
 20
-54.69089082834116
 30
0.0
 10
50.63945853768736
 20
-54.69089082834116
 30
0.0
 10
50.63945853768736
 20
-54.69089082834116
 30
0.0
 10
50.63945853768736
 20
-54.69089082834116
 30
0.0
 10
50.63945853768736
 20
-54.57237954364857
 30
0.0
 10
50.63945853768736
 20
-54.57237954364857
 30
0.0
  0
HATCH
  5
DE
330
D9
100
AcDbEntity
  8
レイヤー 1
 62
   250
420
  4078137
440
 33554687
100
AcDbHatch
 10
0.0
 20
0.0
 30
0.0
210
0.0
220
0.0
230
1.0
  2
SOLID
 70
     1
 71
     1
 91
        1
 92
        1
 93
        1
 72
     4
 94
        3
 73
     0
 74
     0
 95
       71
 96
       67
 40
0.0
 40
0.0
 40
0.0
 40
0.0
 40
1.0
 40
1.0
 40
1.0
 40
2.0
 40
2.0
 40
2.0
 40
3.0
 40
3.0
 40
3.0
 40
4.0
 40
4.0
 40
4.0
 40
5.0
 40
5.0
 40
5.0
 40
6.0
 40
6.0
 40
6.0
 40
7.0
 40
7.0
 40
7.0
 40
8.0
 40
8.0
 40
8.0
 40
9.0
 40
9.0
 40
9.0
 40
10.0
 40
10.0
 40
10.0
 40
11.0
 40
11.0
 40
11.0
 40
12.0
 40
12.0
 40
12.0
 40
13.0
 40
13.0
 40
13.0
 40
14.0
 40
14.0
 40
14.0
 40
15.0
 40
15.0
 40
15.0
 40
16.0
 40
16.0
 40
16.0
 40
17.0
 40
17.0
 40
17.0
 40
18.0
 40
18.0
 40
18.0
 40
19.0
 40
19.0
 40
19.0
 40
20.0
 40
20.0
 40
20.0
 40
21.0
 40
21.0
 40
21.0
 40
22.0
 40
22.0
 40
22.0
 40
22.0
 10
50.63945853768736
 20
-54.57237954364857
 10
50.70698240919825
 20
-54.50485567213767
 10
50.77037216612685
 20
-54.43802081972383
 10
50.82962780847315
 20
-54.37221949595556
 10
50.88888345081945
 20
-54.30641817218728
 10
50.95399575549067
 20
-54.23407116699704
 10
51.02462021293829
 20
-54.1548339708363
 10
51.1269395488502
 20
-54.03976778162895
 10
51.20583223546243
 20
-53.94227157939638
 10
51.261987291872
 20
-53.86234536413859
 10
51.31779783873305
 20
-53.78241914888079
 10
51.3570719272649
 20
-53.70869410549644
 10
51.3791205383705
 20
-53.64117023398554
 10
51.40151365902462
 20
-53.57364636247464
 10
51.41253796457743
 20
-53.50302190502702
 10
51.41253796457743
 20
-53.42895235209415
 10
51.41253796457743
 20
-53.3152642010809
 10
51.386010729341
 20
-53.22741426620703
 10
51.33330076841668
 20
-53.16471352837549
 10
51.28059080749235
 20
-53.10201279054394
 10
51.20583223546243
 20
-53.0710069311767
 10
51.10868054277839
 20
-53.0710069311767
 10
50.92919106799687
 20
-53.0710069311767
 10
50.81481389788657
 20
-53.18607312038404
 10
50.7655490324475
 20
-53.41655000834725
 10
50.7655490324475
 20
-53.41655000834725
 10
50.62981227032866
 20
-53.39450139724165
 10
50.62981227032866
 20
-53.39450139724165
 10
50.65599499601656
 20
-53.24946287731264
 10
50.71249456197466
 20
-53.13715276449349
 10
50.79896645865442
 20
-53.05722654923569
 10
50.88509384578568
 20
-52.9773003339779
 10
50.99258082492546
 20
-52.937337226349
 10
51.12108288652528
 20
-52.937337226349
 10
51.25613062954708
 20
-52.937337226349
 10
51.36361760868688
 20
-52.98074542946315
 10
51.44319931439614
 20
-53.06721732614292
 10
51.52312552965394
 20
-53.15368922282269
 10
51.56308863728284
 20
-53.27013345022414
 10
51.56308863728284
 20
-53.41655000834725
 10
51.56308863728284
 20
-53.4971652427021
 10
51.55034178398742
 20
-53.5757134197658
 10
51.52484807739657
 20
-53.65253904908687
 10
51.49935437080571
 20
-53.72902016885941
 10
51.45560165814305
 20
-53.81204697005394
 10
51.39393444895707
 20
-53.90196396221895
 10
51.33226723977109
 20
-53.99153644483545
 10
51.24717338128543
 20
-54.09730087623263
 10
51.13830836395154
 20
-54.21925725641046
 10
51.08077526934787
 20
-54.28333603243611
 10
51.02944334661764
 20
-54.34086912703978
 10
50.98396808621235
 20
-54.39185654022148
 10
50.93883733535557
 20
-54.4431884629517
 10
50.88716090307682
 20
-54.49899900981275
 10
50.82962780847315
 20
-54.55997719990167
 10
50.82962780847315
 20
-54.55997719990167
 10
51.60029566852354
 20
-54.55997719990167
 10
51.60029566852354
 20
-54.55997719990167
 10
51.60029566852354
 20
-54.55997719990167
 10
51.57307941419007
 20
-54.69089082834116
 10
51.57307941419007
 20
-54.69089082834116
 10
51.57307941419007
 20
-54.69089082834116
 10
50.63945853768736
 20
-54.69089082834116
 10
50.63945853768736
 20
-54.69089082834116
 10
50.63945853768736
 20
-54.69089082834116
 10
50.63945853768736
 20
-54.57237954364857
 10
50.63945853768736
 20
-54.57237954364857
 97
        0
 97
        1
330
DD
 75
     2
 76
     1
 98
        1
 10
0.0
 20
0.0
450
        0
451
        0
460
0.0
461
0.0
452
        0
462
0.0
453
        0
470

  0
SPLINE
  5
DF
330
D9
100
AcDbEntity
  8
レイヤー 1
100
AcDbSpline
210
0.0
220
0.0
230
1.0
 70
     9
 71
     3
 72
    29
 73
    25
 74
     0
 42
0.0000000001
 43
0.0000000001
 40
0.0
 40
0.0
 40
0.0
 40
0.0
 40
1.0
 40
1.0
 40
1.0
 40
2.0
 40
2.0
 40
2.0
 40
3.0
 40
3.0
 40
3.0
 40
4.0
 40
4.0
 40
4.0
 40
5.0
 40
5.0
 40
5.0
 40
6.0
 40
6.0
 40
6.0
 40
7.0
 40
7.0
 40
7.0
 40
8.0
 40
8.0
 40
8.0
 40
8.0
 10
52.56561142349054
 20
-53.18814017767518
 30
0.0
 10
52.50325519520752
 20
-53.10649141467477
 30
0.0
 10
52.41919486536742
 20
-53.06583928794882
 30
0.0
 10
52.31377494351878
 20
-53.06583928794882
 30
0.0
 10
52.20525443573341
 20
-53.06583928794882
 30
0.0
 10
52.12084959634479
 20
-53.10476886693214
 30
0.0
 10
52.06056042535291
 20
-53.18193900580173
 30
0.0
 10
52.00061576390957
 20
-53.25945365421986
 30
0.0
 10
51.97064343318789
 20
-53.36969670974785
 30
0.0
 10
51.97064343318789
 20
-53.51301268193425
 30
0.0
 10
51.97064343318789
 20
-53.65116101089277
 30
0.0
 10
51.99992674481252
 20
-53.75726995183846
 30
0.0
 10
52.05814885851324
 20
-53.83133950477134
 30
0.0
 10
52.11671548176249
 20
-53.9054090577042
 30
0.0
 10
52.19939777340848
 20
-53.9426160889449
 30
0.0
 10
52.30654024299976
 20
-53.9426160889449
 30
0.0
 10
52.41506075078512
 20
-53.9426160889449
 30
0.0
 10
52.50118813791637
 20
-53.90472003860715
 30
0.0
 10
52.56457789484496
 20
-53.82892793793166
 30
0.0
 10
52.62796765177356
 20
-53.75313583725616
 30
0.0
 10
52.65966253023787
 20
-53.65116101089277
 30
0.0
 10
52.65966253023787
 20
-53.52265894929295
 30
0.0
 10
52.65966253023787
 20
-53.38106552484918
 30
0.0
 10
52.62831216132209
 20
-53.26978894067561
 30
0.0
 10
52.56561142349054
 20
-53.18814017767518
 30
0.0
  0
SPLINE
  5
E0
330
D9
100
AcDbEntity
  8
レイヤー 1
100
AcDbSpline
210
0.0
220
0.0
230
1.0
 70
     9
 71
     3
 72
    68
 73
    64
 74
     0
 42
0.0000000001
 43
0.0000000001
 40
0.0
 40
0.0
 40
0.0
 40
0.0
 40
1.0
 40
1.0
 40
1.0
 40
2.0
 40
2.0
 40
2.0
 40
3.0
 40
3.0
 40
3.0
 40
4.0
 40
4.0
 40
4.0
 40
5.0
 40
5.0
 40
5.0
 40
6.0
 40
6.0
 40
6.0
 40
7.0
 40
7.0
 40
7.0
 40
8.0
 40
8.0
 40
8.0
 40
9.0
 40
9.0
 40
9.0
 40
10.0
 40
10.0
 40
10.0
 40
11.0
 40
11.0
 40
11.0
 40
12.0
 40
12.0
 40
12.0
 40
13.0
 40
13.0
 40
13.0
 40
14.0
 40
14.0
 40
14.0
 40
15.0
 40
15.0
 40
15.0
 40
16.0
 40
16.0
 40
16.0
 40
17.0
 40
17.0
 40
17.0
 40
18.0
 40
18.0
 40
18.0
 40
19.0
 40
19.0
 40
19.0
 40
20.0
 40
20.0
 40
20.0
 40
21.0
 40
21.0
 40
21.0
 40
21.0
 10
52.68067761269789
 20
-53.83030597612576
 30
0.0
 10
52.68136663179493
 20
-53.82100421831559
 30
0.0
 10
52.68171114134347
 20
-53.8117024605054
 30
0.0
 10
52.68171114134347
 20
-53.80171168359819
 30
0.0
 10
52.64381509100571
 20
-53.88577201343828
 30
0.0
 10
52.58972709188729
 20
-53.95122882765803
 30
0.0
 10
52.51875812489114
 20
-53.99808212625742
 30
0.0
 10
52.44813366744352
 20
-54.04493542485682
 30
0.0
 10
52.36820745218572
 20
-54.06836207415652
 30
0.0
 10
52.27932398866628
 20
-54.06836207415652
 30
0.0
 10
52.13945311196514
 20
-54.06836207415652
 30
0.0
 10
52.02955456598567
 20
-54.01944171826597
 30
0.0
 10
51.94962835072787
 20
-53.92160100648488
 30
0.0
 10
51.86970213547008
 20
-53.82376029470378
 30
0.0
 10
51.82973902784118
 20
-53.68836804213347
 30
0.0
 10
51.82973902784118
 20
-53.51542424877393
 30
0.0
 10
51.82973902784118
 20
-53.33937986947766
 30
0.0
 10
51.87383625005238
 20
-53.19881997367946
 30
0.0
 10
51.96203069447477
 20
-53.09443358047639
 30
0.0
 10
52.04988062934864
 20
-52.9897026777248
 30
0.0
 10
52.16804740449271
 20
-52.937337226349
 30
0.0
 10
52.31618651035845
 20
-52.937337226349
 30
0.0
 10
52.48740775597537
 20
-52.937337226349
 30
0.0
 10
52.61418726983257
 20
-53.00451658831137
 30
0.0
 10
52.69652505193004
 20
-53.13887531223612
 30
0.0
 10
52.7788628340275
 20
-53.27288952661234
 30
0.0
 10
52.8202039798505
 20
-53.47821721753323
 30
0.0
 10
52.8202039798505
 20
-53.75485838499879
 30
0.0
 10
52.8202039798505
 20
-53.88818358027795
 30
0.0
 10
52.81228026023443
 20
-54.01392956548957
 30
0.0
 10
52.79643282100228
 20
-54.13140732153659
 30
0.0
 10
52.78092989131866
 20
-54.24922958713214
 30
0.0
 10
52.75405814653371
 20
-54.35327147078669
 30
0.0
 10
52.71650660574448
 20
-54.44387748204875
 30
0.0
 10
52.67861055540674
 20
-54.53448349331083
 30
0.0
 10
52.62521157538536
 20
-54.60545246030697
 30
0.0
 10
52.55699868477742
 20
-54.65747340213424
 30
0.0
 10
52.48878579416947
 20
-54.70949434396152
 30
0.0
 10
52.40265840703822
 20
-54.73533256010089
 30
0.0
 10
52.29896103293221
 20
-54.73533256010089
 30
0.0
 10
52.04712455296044
 20
-54.73533256010089
 30
0.0
 10
51.89967446619174
 20
-54.59959579798205
 30
0.0
 10
51.85695528217465
 20
-54.32777776419584
 30
0.0
 10
51.85695528217465
 20
-54.32777776419584
 30
0.0
 10
51.99510361113317
 20
-54.32777776419584
 30
0.0
 10
51.99510361113317
 20
-54.32777776419584
 30
0.0
 10
52.01336261720499
 20
-54.42492945687988
 30
0.0
 10
52.04712455296044
 20
-54.4955539143275
 30
0.0
 10
52.09638941839951
 20
-54.54034015563575
 30
0.0
 10
52.14599879338711
 20
-54.58478188739547
 30
0.0
 10
52.21593423173768
 20
-54.60683049850107
 30
0.0
 10
52.30654024299976
 20
-54.60683049850107
 30
0.0
 10
52.39852429245592
 20
-54.60683049850107
 30
0.0
 10
52.47087129764618
 20
-54.57582463913382
 30
0.0
 10
52.5235812585705
 20
-54.51415742994785
 30
0.0
 10
52.57629121949482
 20
-54.45249022076188
 30
0.0
 10
52.61453177938109
 20
-54.36567381453358
 30
0.0
 10
52.63864744777784
 20
-54.25370821126296
 30
0.0
 10
52.66241860662606
 20
-54.14174260799234
 30
0.0
 10
52.67585447901854
 20
-54.0101399604558
 30
0.0
 10
52.67929957450379
 20
-53.85855575910481
 30
0.0
 10
52.67929957450379
 20
-53.84856498219758
 30
0.0
 10
52.67964408405231
 20
-53.83926322438741
 30
0.0
 10
52.68067761269789
 20
-53.83030597612576
 30
0.0
  0
HATCH
  5
E1
330
D9
100
AcDbEntity
  8
レイヤー 1
 62
   250
420
  4078137
440
 33554687
100
AcDbHatch
 10
0.0
 20
0.0
 30
0.0
210
0.0
220
0.0
230
1.0
  2
SOLID
 70
     1
 71
     1
 91
        2
 92
        1
 93
        1
 72
     4
 94
        3
 73
     0
 74
     0
 95
       29
 96
       25
 40
0.0
 40
0.0
 40
0.0
 40
0.0
 40
1.0
 40
1.0
 40
1.0
 40
2.0
 40
2.0
 40
2.0
 40
3.0
 40
3.0
 40
3.0
 40
4.0
 40
4.0
 40
4.0
 40
5.0
 40
5.0
 40
5.0
 40
6.0
 40
6.0
 40
6.0
 40
7.0
 40
7.0
 40
7.0
 40
8.0
 40
8.0
 40
8.0
 40
8.0
 10
52.56561142349054
 20
-53.18814017767518
 10
52.50325519520752
 20
-53.10649141467477
 10
52.41919486536742
 20
-53.06583928794882
 10
52.31377494351878
 20
-53.06583928794882
 10
52.20525443573341
 20
-53.06583928794882
 10
52.12084959634479
 20
-53.10476886693214
 10
52.06056042535291
 20
-53.18193900580173
 10
52.00061576390957
 20
-53.25945365421986
 10
51.97064343318789
 20
-53.36969670974785
 10
51.97064343318789
 20
-53.51301268193425
 10
51.97064343318789
 20
-53.65116101089277
 10
51.99992674481252
 20
-53.75726995183846
 10
52.05814885851324
 20
-53.83133950477134
 10
52.11671548176249
 20
-53.9054090577042
 10
52.19939777340848
 20
-53.9426160889449
 10
52.30654024299976
 20
-53.9426160889449
 10
52.41506075078512
 20
-53.9426160889449
 10
52.50118813791637
 20
-53.90472003860715
 10
52.56457789484496
 20
-53.82892793793166
 10
52.62796765177356
 20
-53.75313583725616
 10
52.65966253023787
 20
-53.65116101089277
 10
52.65966253023787
 20
-53.52265894929295
 10
52.65966253023787
 20
-53.38106552484918
 10
52.62831216132209
 20
-53.26978894067561
 10
52.56561142349054
 20
-53.18814017767518
 97
        0
 97
        1
330
DF
 92
        1
 93
        1
 72
     4
 94
        3
 73
     0
 74
     0
 95
       68
 96
       64
 40
0.0
 40
0.0
 40
0.0
 40
0.0
 40
1.0
 40
1.0
 40
1.0
 40
2.0
 40
2.0
 40
2.0
 40
3.0
 40
3.0
 40
3.0
 40
4.0
 40
4.0
 40
4.0
 40
5.0
 40
5.0
 40
5.0
 40
6.0
 40
6.0
 40
6.0
 40
7.0
 40
7.0
 40
7.0
 40
8.0
 40
8.0
 40
8.0
 40
9.0
 40
9.0
 40
9.0
 40
10.0
 40
10.0
 40
10.0
 40
11.0
 40
11.0
 40
11.0
 40
12.0
 40
12.0
 40
12.0
 40
13.0
 40
13.0
 40
13.0
 40
14.0
 40
14.0
 40
14.0
 40
15.0
 40
15.0
 40
15.0
 40
16.0
 40
16.0
 40
16.0
 40
17.0
 40
17.0
 40
17.0
 40
18.0
 40
18.0
 40
18.0
 40
19.0
 40
19.0
 40
19.0
 40
20.0
 40
20.0
 40
20.0
 40
21.0
 40
21.0
 40
21.0
 40
21.0
 10
52.68067761269789
 20
-53.83030597612576
 10
52.68136663179493
 20
-53.82100421831559
 10
52.68171114134347
 20
-53.8117024605054
 10
52.68171114134347
 20
-53.80171168359819
 10
52.64381509100571
 20
-53.88577201343828
 10
52.58972709188729
 20
-53.95122882765803
 10
52.51875812489114
 20
-53.99808212625742
 10
52.44813366744352
 20
-54.04493542485682
 10
52.36820745218572
 20
-54.06836207415652
 10
52.27932398866628
 20
-54.06836207415652
 10
52.13945311196514
 20
-54.06836207415652
 10
52.02955456598567
 20
-54.01944171826597
 10
51.94962835072787
 20
-53.92160100648488
 10
51.86970213547008
 20
-53.82376029470378
 10
51.82973902784118
 20
-53.68836804213347
 10
51.82973902784118
 20
-53.51542424877393
 10
51.82973902784118
 20
-53.33937986947766
 10
51.87383625005238
 20
-53.19881997367946
 10
51.96203069447477
 20
-53.09443358047639
 10
52.04988062934864
 20
-52.9897026777248
 10
52.16804740449271
 20
-52.937337226349
 10
52.31618651035845
 20
-52.937337226349
 10
52.48740775597537
 20
-52.937337226349
 10
52.61418726983257
 20
-53.00451658831137
 10
52.69652505193004
 20
-53.13887531223612
 10
52.7788628340275
 20
-53.27288952661234
 10
52.8202039798505
 20
-53.47821721753323
 10
52.8202039798505
 20
-53.75485838499879
 10
52.8202039798505
 20
-53.88818358027795
 10
52.81228026023443
 20
-54.01392956548957
 10
52.79643282100228
 20
-54.13140732153659
 10
52.78092989131866
 20
-54.24922958713214
 10
52.75405814653371
 20
-54.35327147078669
 10
52.71650660574448
 20
-54.44387748204875
 10
52.67861055540674
 20
-54.53448349331083
 10
52.62521157538536
 20
-54.60545246030697
 10
52.55699868477742
 20
-54.65747340213424
 10
52.48878579416947
 20
-54.70949434396152
 10
52.40265840703822
 20
-54.73533256010089
 10
52.29896103293221
 20
-54.73533256010089
 10
52.04712455296044
 20
-54.73533256010089
 10
51.89967446619174
 20
-54.59959579798205
 10
51.85695528217465
 20
-54.32777776419584
 10
51.85695528217465
 20
-54.32777776419584
 10
51.99510361113317
 20
-54.32777776419584
 10
51.99510361113317
 20
-54.32777776419584
 10
52.01336261720499
 20
-54.42492945687988
 10
52.04712455296044
 20
-54.4955539143275
 10
52.09638941839951
 20
-54.54034015563575
 10
52.14599879338711
 20
-54.58478188739547
 10
52.21593423173768
 20
-54.60683049850107
 10
52.30654024299976
 20
-54.60683049850107
 10
52.39852429245592
 20
-54.60683049850107
 10
52.47087129764618
 20
-54.57582463913382
 10
52.5235812585705
 20
-54.51415742994785
 10
52.57629121949482
 20
-54.45249022076188
 10
52.61453177938109
 20
-54.36567381453358
 10
52.63864744777784
 20
-54.25370821126296
 10
52.66241860662606
 20
-54.14174260799234
 10
52.67585447901854
 20
-54.0101399604558
 10
52.67929957450379
 20
-53.85855575910481
 10
52.67929957450379
 20
-53.84856498219758
 10
52.67964408405231
 20
-53.83926322438741
 10
52.68067761269789
 20
-53.83030597612576
 97
        0
 97
        1
330
E0
 75
     2
 76
     1
 98
        1
 10
0.0
 20
0.0
450
        0
451
        0
460
0.0
461
0.0
452
        0
462
0.0
453
        0
470

  0
ENDBLK
  5
DC
330
D9
100
AcDbEntity
  8
0
100
AcDbBlockEnd
  0
BLOCK
  5
E5
330
E3
100
AcDbEntity
  8
0
100
AcDbBlockBegin
  2
Block_7
 70
     0
 10
0.0
 20
0.0
 30
0.0
  3
Block_7
  1

  0
LWPOLYLINE
  5
E7
330
E3
100
AcDbEntity
  8
レイヤー 1
 62
   250
420
  4078137
370
    18
100
AcDbPolyline
 90
        4
 70
     1
 43
0.0
 10
48.78259293206745
 20
-48.35571864933165
 10
48.78259293206745
 20
-47.75011082363501
 10
54.690912115648
 20
-47.75011082363501
 10
54.690912115648
 20
-48.35571864933165
  0
LWPOLYLINE
  5
E8
330
E3
100
AcDbEntity
  8
レイヤー 1
 62
   250
420
  4078137
370
    18
100
AcDbPolyline
 90
        4
 70
     1
 43
0.0
 10
50.22005756102107
 20
-47.75011082363501
 10
50.22005756102107
 20
-47.14450299793899
 10
53.25344748669213
 20
-47.14450299793899
 10
53.25344748669213
 20
-47.75011082363501
  0
LWPOLYLINE
  5
E9
330
E3
100
AcDbEntity
  8
レイヤー 1
 62
   250
420
  4078137
370
    18
100
AcDbPolyline
 90
        4
 70
     1
 43
0.0
 10
47.67902756731721
 20
-46.35219965914489
 10
47.67902756731721
 20
-48.5424141624291
 10
55.6957806913071
 20
-48.5424141624291
 10
55.6957806913071
 20
-46.35219965914489
  0
LWPOLYLINE
  5
EA
330
E3
100
AcDbEntity
  8
レイヤー 1
 62
   250
420
  4078137
370
    18
100
AcDbPolyline
 90
        4
 70
     1
 43
0.0
 10
46.72826356076376
 20
-45.38453046845056
 10
46.72826356076376
 20
-49.51008335312343
 10
56.72826355826342
 20
-49.51008335312343
 10
56.72826355826342
 20
-45.38453046845056
  0
ENDBLK
  5
E6
330
E3
100
AcDbEntity
  8
0
100
AcDbBlockEnd
  0
ENDSEC
  0
SECTION
  2
ENTITIES
  0
INSERT
  5
7A
330
70
100
AcDbEntity
  8
レイヤー 1
100
AcDbBlockReference
  2
Block_0
 10
0.0
 20
0.0
 30
0.0
  0
INSERT
  5
C1
330
70
100
AcDbEntity
  8
レイヤー 1
100
AcDbBlockReference
  2
Block_2
 10
0.0
 20
0.0
 30
0.0
  0
LWPOLYLINE
  5
CD
330
70
100
AcDbEntity
  8
レイヤー 1
 62
   250
420
  4078137
370
     9
100
AcDbPolyline
 90
        4
 70
     0
 43
0.0
 10
36.5670960596235
 20
-49.51766807534338
 10
34.56687463512358
 20
-49.51766807534338
 10
34.56687463512358
 20
-43.51974029906558
 10
36.5670960596235
 20
-43.51974029906558
  0
INSERT
  5
CF
330
70
100
AcDbEntity
  8
レイヤー 1
100
AcDbBlockReference
  2
Block_4
 10
0.0
 20
0.0
 30
0.0
  0
INSERT
  5
D6
330
70
100
AcDbEntity
  8
レイヤー 1
100
AcDbBlockReference
  2
Block_5
 10
0.0
 20
0.0
 30
0.0
  0
LWPOLYLINE
  5
E2
330
70
100
AcDbEntity
  8
レイヤー 1
 62
   250
420
  4078137
370
     9
100
AcDbPolyline
 90
        4
 70
     0
 43
0.0
 10
66.23109561213105
 20
-50.36789779735339
 10
66.23109561213105
 20
-52.36814779685335
 10
37.23098075827044
 20
-52.36814779685335
 10
37.23098075827044
 20
-50.36789779735339
  0
INSERT
  5
E4
330
70
100
AcDbEntity
  8
レイヤー 1
100
AcDbBlockReference
  2
Block_7
 10
0.0
 20
0.0
 30
0.0
  0
ENDSEC
  0
SECTION
  2
OBJECTS
  0
DICTIONARY
  5
C
330
0
100
AcDbDictionary
281
     1
  3
ACAD_COLOR
350
63
  3
ACAD_DETAILVIEWSTYLE
350
6A
  3
ACAD_GROUP
350
D
  3
ACAD_LAYOUT
350
62
  3
ACAD_MATERIAL
350
10
  3
ACAD_MLEADERSTYLE
350
66
  3
ACAD_MLINESTYLE
350
5F
  3
ACAD_PLOTSETTINGS
350
61
  3
ACAD_PLOTSTYLENAME
350
E
  3
ACAD_SCALELIST
350
42
  3
ACAD_SECTIONVIEWSTYLE
350
68
  3
ACAD_TABLESTYLE
350
64
  3
ACAD_VISUALSTYLE
350
29
  3
ACDB_RECOMPOSE_DATA
350
F3
  3
AcDbVariableDictionary
350
EB
  0
DICTIONARY
  5
63
102
{ACAD_REACTORS
330
C
102
}
330
C
100
AcDbDictionary
281
     1
  0
DICTIONARY
  5
6A
102
{ACAD_REACTORS
330
C
102
}
330
C
100
AcDbDictionary
281
     1
  3
Imperial24
350
6B
  0
DICTIONARY
  5
D
102
{ACAD_REACTORS
330
C
102
}
330
C
100
AcDbDictionary
281
     1
  0
DICTIONARY
  5
62
102
{ACAD_REACTORS
330
C
102
}
330
C
100
AcDbDictionary
281
     1
  3
Layout1
350
6F
  3
Layout2
350
77
  3
Model
350
73
  0
DICTIONARY
  5
10
102
{ACAD_REACTORS
330
C
102
}
330
C
100
AcDbDictionary
281
     1
  3
ByBlock
350
19
  3
ByLayer
350
11
  3
Global
350
21
  0
DICTIONARY
  5
66
102
{ACAD_REACTORS
330
C
102
}
330
C
100
AcDbDictionary
281
     1
  3
Standard
350
67
  0
DICTIONARY
  5
5F
102
{ACAD_REACTORS
330
C
102
}
330
C
100
AcDbDictionary
281
     1
  3
Standard
350
60
  0
DICTIONARY
  5
61
102
{ACAD_REACTORS
330
C
102
}
330
C
100
AcDbDictionary
281
     1
  0
ACDBDICTIONARYWDFLT
  5
E
102
{ACAD_REACTORS
330
C
102
}
330
C
100
AcDbDictionary
281
     1
  3
Normal
350
F
100
AcDbDictionaryWithDefault
340
F
  0
DICTIONARY
  5
42
102
{ACAD_REACTORS
330
C
102
}
330
C
100
AcDbDictionary
281
     1
  3
A0
350
43
  3
A1
350
44
  3
A2
350
45
  3
A3
350
46
  3
A4
350
47
  3
A5
350
48
  3
A6
350
49
  3
A7
350
4A
  3
A8
350
4B
  3
A9
350
4C
  3
B0
350
4D
  3
B1
350
4E
  3
B2
350
4F
  3
B3
350
50
  3
B4
350
51
  3
B5
350
52
  3
B6
350
53
  0
DICTIONARY
  5
68
102
{ACAD_REACTORS
330
C
102
}
330
C
100
AcDbDictionary
281
     1
  3
Imperial24
350
69
  0
DICTIONARY
  5
64
102
{ACAD_REACTORS
330
C
102
}
330
C
100
AcDbDictionary
281
     1
  3
Standard
350
65
  0
DICTIONARY
  5
29
102
{ACAD_REACTORS
330
C
102
}
330
C
100
AcDbDictionary
281
     1
  3
2dWireframe
350
2F
  3
Basic
350
2E
  3
Brighten
350
35
  3
ColorChange
350
39
  3
Conceptual
350
32
  3
Dim
350
34
  3
EdgeColorOff
350
41
  3
Facepattern
350
38
  3
Flat
350
2A
  3
FlatWithEdges
350
2B
  3
Gouraud
350
2C
  3
GouraudWithEdges
350
2D
  3
Hidden
350
31
  3
JitterOff
350
3F
  3
Linepattern
350
37
  3
OverhangOff
350
40
  3
Realistic
350
33
  3
Shaded
350
3E
  3
Shaded with edges
350
3D
  3
Shades of Gray
350
3A
  3
Sketchy
350
3B
  3
Thicken
350
36
  3
Wireframe
350
30
  3
X-Ray
350
3C
  0
XRECORD
  5
F3
102
{ACAD_REACTORS
330
C
102
}
330
C
100
AcDbXrecord
280
     1
 90
        1
330
65
  0
DICTIONARY
  5
EB
102
{ACAD_REACTORS
330
C
102
}
330
C
100
AcDbDictionary
281
     1
  3
CANNOSCALE
350
F0
  3
CMLEADERSTYLE
350
ED
  3
CTABLESTYLE
350
EC
  3
CVIEWDETAILSTYLE
350
EE
  3
CVIEWSECTIONSTYLE
350
EF
  0
ACDBDETAILVIEWSTYLE
  5
6B
102
{ACAD_REACTORS
330
6A
102
}
330
6A
100
AcDbModelDocViewStyle
 70
     0
  3
Imperial24
290
     1
300
Imperial24
 90
        0
100
AcDbDetailViewStyle
 70
     0
 71
     0
 90
        3
 71
     1
340
55
 62
   256
 40
0.24
340
0
 62
   256
 40
0.24
300

 40
0.36
280
     3
 71
     2
340
5D
 90
       25
 62
   256
 71
     3
340
55
 62
   256
 40
0.24
 90
        1
 40
0.75
 90
        1
300
%<\AcVar ViewType \f "%tc1">% %<\AcVar ViewDetailId>%\PSCALE %<\AcVar ViewScale \f "%sn">%
 71
     4
340
5D
 90
       25
 62
   256
340
5D
 90
       25
 62
   256
280
     0
  0
LAYOUT
  5
6F
102
{ACAD_REACTORS
330
62
102
}
330
62
100
AcDbPlotSettings
  1

  2

  4

  6

 40
0.0
 41
0.0
 42
0.0
 43
0.0
 44
0.0
 45
0.0
 46
0.0
 47
0.0
 48
0.0
 49
0.0
140
0.0
141
0.0
142
1.0
143
1.0
 70
   688
 72
     0
 73
     0
 74
     5
  7

 75
    16
147
1.0
 76
     0
 77
     2
 78
   300
148
0.0
149
0.0
100
AcDbLayout
  1
Layout1
 70
     1
 71
     1
 10
0.0
 20
0.0
 11
12.0
 21
9.0
 12
0.0
 22
0.0
 32
0.0
 14
0.0
 24
0.0
 34
0.0
 15
0.0
 25
0.0
 35
0.0
146
0.0
 13
0.0
 23
0.0
 33
0.0
 16
1.0
 26
0.0
 36
0.0
 17
0.0
 27
1.0
 37
0.0
 76
     0
330
6C
  0
LAYOUT
  5
77
102
{ACAD_REACTORS
330
62
102
}
330
62
100
AcDbPlotSettings
  1

  2

  4

  6

 40
0.0
 41
0.0
 42
0.0
 43
0.0
 44
0.0
 45
0.0
 46
0.0
 47
0.0
 48
0.0
 49
0.0
140
0.0
141
0.0
142
1.0
143
1.0
 70
   688
 72
     0
 73
     0
 74
     5
  7

 75
    16
147
1.0
 76
     0
 77
     2
 78
   300
148
0.0
149
0.0
100
AcDbLayout
  1
Layout2
 70
     1
 71
     2
 10
0.0
 20
0.0
 11
12.0
 21
9.0
 12
0.0
 22
0.0
 32
0.0
 14
0.0
 24
0.0
 34
0.0
 15
0.0
 25
0.0
 35
0.0
146
0.0
 13
0.0
 23
0.0
 33
0.0
 16
1.0
 26
0.0
 36
0.0
 17
0.0
 27
1.0
 37
0.0
 76
     0
330
74
  0
LAYOUT
  5
73
102
{ACAD_REACTORS
330
62
102
}
330
62
100
AcDbPlotSettings
  1

  2

  4

  6

 40
0.0
 41
0.0
 42
0.0
 43
0.0
 44
0.0
 45
0.0
 46
0.0
 47
0.0
 48
0.0
 49
0.0
140
0.0
141
0.0
142
1.0
143
1.0
 70
  1712
 72
     0
 73
     0
 74
     0
  7

 75
     0
147
1.0
 76
     0
 77
     2
 78
   300
148
0.0
149
0.0
100
AcDbLayout
  1
Model
 70
     1
 71
     0
 10
0.0
 20
0.0
 11
12.0
 21
9.0
 12
0.0
 22
0.0
 32
0.0
 14
0.0
 24
0.0
 34
0.0
 15
0.0
 25
0.0
 35
0.0
146
0.0
 13
0.0
 23
0.0
 33
0.0
 16
1.0
 26
0.0
 36
0.0
 17
0.0
 27
1.0
 37
0.0
 76
     0
330
70
  0
MATERIAL
  5
19
102
{ACAD_XDICTIONARY
360
1A
102
}
102
{ACAD_REACTORS
330
10
102
}
330
10
100
AcDbMaterial
  1
ByBlock
 72
     0
 43
0.0208333333333333
 43
0.0
 43
0.0
 43
0.0
 43
0.0
 43
0.0208333333333333
 43
0.0
 43
0.0
 43
0.0
 43
0.0
 43
1.0
 43
0.0
 43
0.0
 43
0.0
 43
0.0
 43
1.0
 77
     0
 47
0.0208333333333333
 47
0.0
 47
0.0
 47
0.0
 47
0.0
 47
0.0208333333333333
 47
0.0
 47
0.0
 47
0.0
 47
0.0
 47
1.0
 47
0.0
 47
0.0
 47
0.0
 47
0.0
 47
1.0
171
     0
 49
0.0208333333333333
 49
0.0
 49
0.0
 49
0.0
 49
0.0
 49
0.0208333333333333
 49
0.0
 49
0.0
 49
0.0
 49
0.0
 49
1.0
 49
0.0
 49
0.0
 49
0.0
 49
0.0
 49
1.0
175
     0
142
0.0208333333333333
142
0.0
142
0.0
142
0.0
142
0.0
142
0.0208333333333333
142
0.0
142
0.0
142
0.0
142
0.0
142
1.0
142
0.0
142
0.0
142
0.0
142
0.0
142
1.0
179
     0
144
0.0208333333333333
144
0.0
144
0.0
144
0.0
144
0.0
144
0.0208333333333333
144
0.0
144
0.0
144
0.0
144
0.0
144
1.0
144
0.0
144
0.0
144
0.0
144
0.0
144
1.0
147
0.0208333333333333
147
0.0
147
0.0
147
0.0
147
0.0
147
0.0208333333333333
147
0.0
147
0.0
147
0.0
147
0.0
147
1.0
147
0.0
147
0.0
147
0.0
147
0.0
147
1.0
  0
MATERIAL
  5
11
102
{ACAD_XDICTIONARY
360
12
102
}
102
{ACAD_REACTORS
330
10
102
}
330
10
100
AcDbMaterial
  1
ByLayer
 72
     0
 43
0.0208333333333333
 43
0.0
 43
0.0
 43
0.0
 43
0.0
 43
0.0208333333333333
 43
0.0
 43
0.0
 43
0.0
 43
0.0
 43
1.0
 43
0.0
 43
0.0
 43
0.0
 43
0.0
 43
1.0
 77
     0
 47
0.0208333333333333
 47
0.0
 47
0.0
 47
0.0
 47
0.0
 47
0.0208333333333333
 47
0.0
 47
0.0
 47
0.0
 47
0.0
 47
1.0
 47
0.0
 47
0.0
 47
0.0
 47
0.0
 47
1.0
171
     0
 49
0.0208333333333333
 49
0.0
 49
0.0
 49
0.0
 49
0.0
 49
0.0208333333333333
 49
0.0
 49
0.0
 49
0.0
 49
0.0
 49
1.0
 49
0.0
 49
0.0
 49
0.0
 49
0.0
 49
1.0
175
     0
142
0.0208333333333333
142
0.0
142
0.0
142
0.0
142
0.0
142
0.0208333333333333
142
0.0
142
0.0
142
0.0
142
0.0
142
1.0
142
0.0
142
0.0
142
0.0
142
0.0
142
1.0
179
     0
144
0.0208333333333333
144
0.0
144
0.0
144
0.0
144
0.0
144
0.0208333333333333
144
0.0
144
0.0
144
0.0
144
0.0
144
1.0
144
0.0
144
0.0
144
0.0
144
0.0
144
1.0
147
0.0208333333333333
147
0.0
147
0.0
147
0.0
147
0.0
147
0.0208333333333333
147
0.0
147
0.0
147
0.0
147
0.0
147
1.0
147
0.0
147
0.0
147
0.0
147
0.0
147
1.0
  0
MATERIAL
  5
21
102
{ACAD_XDICTIONARY
360
22
102
}
102
{ACAD_REACTORS
330
10
102
}
330
10
100
AcDbMaterial
  1
Global
 72
     0
 43
0.0208333333333333
 43
0.0
 43
0.0
 43
0.0
 43
0.0
 43
0.0208333333333333
 43
0.0
 43
0.0
 43
0.0
 43
0.0
 43
1.0
 43
0.0
 43
0.0
 43
0.0
 43
0.0
 43
1.0
 77
     0
 47
0.0208333333333333
 47
0.0
 47
0.0
 47
0.0
 47
0.0
 47
0.0208333333333333
 47
0.0
 47
0.0
 47
0.0
 47
0.0
 47
1.0
 47
0.0
 47
0.0
 47
0.0
 47
0.0
 47
1.0
171
     0
 49
0.0208333333333333
 49
0.0
 49
0.0
 49
0.0
 49
0.0
 49
0.0208333333333333
 49
0.0
 49
0.0
 49
0.0
 49
0.0
 49
1.0
 49
0.0
 49
0.0
 49
0.0
 49
0.0
 49
1.0
175
     0
142
0.0208333333333333
142
0.0
142
0.0
142
0.0
142
0.0
142
0.0208333333333333
142
0.0
142
0.0
142
0.0
142
0.0
142
1.0
142
0.0
142
0.0
142
0.0
142
0.0
142
1.0
179
     0
144
0.0208333333333333
144
0.0
144
0.0
144
0.0
144
0.0
144
0.0208333333333333
144
0.0
144
0.0
144
0.0
144
0.0
144
1.0
144
0.0
144
0.0
144
0.0
144
0.0
144
1.0
147
0.0208333333333333
147
0.0
147
0.0
147
0.0
147
0.0
147
0.0208333333333333
147
0.0
147
0.0
147
0.0
147
0.0
147
1.0
147
0.0
147
0.0
147
0.0
147
0.0
147
1.0
  0
MLEADERSTYLE
  5
67
102
{ACAD_REACTORS
330
66
102
}
330
66
100
AcDbMLeaderStyle
179
     2
170
     2
171
     1
172
     0
 90
        2
 40
0.0
 41
0.0
173
     1
 91
-1056964608
340
5B
 92
       -2
290
     1
 42
0.09
291
     1
 43
0.36
  3
Standard
 44
0.18
300

342
55
174
     1
178
     6
175
     1
176
     0
 93
-1056964608
 45
0.18
292
     0
297
     0
 46
0.18
 94
-1056964608
 47
1.0
 49
1.0
140
1.0
293
     1
141
0.0
294
     1
177
     0
142
1.0
295
     1
296
     0
143
0.125
271
     0
272
     9
273
     9
298
     1
  0
MLINESTYLE
  5
60
102
{ACAD_REACTORS
330
5F
102
}
330
5F
100
AcDbMlineStyle
  2
STANDARD
 70
     0
  3

 62
   256
 51
90.0
 52
90.0
 71
     2
 49
0.5
 62
   256
  6
BYLAYER
 49
-0.5
 62
   256
  6
BYLAYER
  0
ACDBPLACEHOLDER
  5
F
102
{ACAD_REACTORS
330
E
102
}
330
E
  0
SCALE
  5
43
102
{ACAD_REACTORS
330
42
102
}
330
42
100
AcDbScale
 70
     0
300
1:1
140
1.0
141
1.0
290
     1
  0
SCALE
  5
44
102
{ACAD_REACTORS
330
42
102
}
330
42
100
AcDbScale
 70
     0
300
1/128" = 1'-0"
140
0.0078125
141
12.0
290
     0
  0
SCALE
  5
45
102
{ACAD_REACTORS
330
42
102
}
330
42
100
AcDbScale
 70
     0
300
1/64" = 1'-0"
140
0.015625
141
12.0
290
     0
  0
SCALE
  5
46
102
{ACAD_REACTORS
330
42
102
}
330
42
100
AcDbScale
 70
     0
300
1/32" = 1'-0"
140
0.03125
141
12.0
290
     0
  0
SCALE
  5
47
102
{ACAD_REACTORS
330
42
102
}
330
42
100
AcDbScale
 70
     0
300
1/16" = 1'-0"
140
0.0625
141
12.0
290
     0
  0
SCALE
  5
48
102
{ACAD_REACTORS
330
42
102
}
330
42
100
AcDbScale
 70
     0
300
3/32" = 1'-0"
140
0.09375
141
12.0
290
     0
  0
SCALE
  5
49
102
{ACAD_REACTORS
330
42
102
}
330
42
100
AcDbScale
 70
     0
300
1/8" = 1'-0"
140
0.125
141
12.0
290
     0
  0
SCALE
  5
4A
102
{ACAD_REACTORS
330
42
102
}
330
42
100
AcDbScale
 70
     0
300
3/16" = 1'-0"
140
0.1875
141
12.0
290
     0
  0
SCALE
  5
4B
102
{ACAD_REACTORS
330
42
102
}
330
42
100
AcDbScale
 70
     0
300
1/4" = 1'-0"
140
0.25
141
12.0
290
     0
  0
SCALE
  5
4C
102
{ACAD_REACTORS
330
42
102
}
330
42
100
AcDbScale
 70
     0
300
3/8" = 1'-0"
140
0.375
141
12.0
290
     0
  0
SCALE
  5
4D
102
{ACAD_REACTORS
330
42
102
}
330
42
100
AcDbScale
 70
     0
300
1/2" = 1'-0"
140
0.5
141
12.0
290
     0
  0
SCALE
  5
4E
102
{ACAD_REACTORS
330
42
102
}
330
42
100
AcDbScale
 70
     0
300
3/4" = 1'-0"
140
0.75
141
12.0
290
     0
  0
SCALE
  5
4F
102
{ACAD_REACTORS
330
42
102
}
330
42
100
AcDbScale
 70
     0
300
1" = 1'-0"
140
1.0
141
12.0
290
     0
  0
SCALE
  5
50
102
{ACAD_REACTORS
330
42
102
}
330
42
100
AcDbScale
 70
     0
300
1-1/2" = 1'-0"
140
1.5
141
12.0
290
     0
  0
SCALE
  5
51
102
{ACAD_REACTORS
330
42
102
}
330
42
100
AcDbScale
 70
     0
300
3" = 1'-0"
140
3.0
141
12.0
290
     0
  0
SCALE
  5
52
102
{ACAD_REACTORS
330
42
102
}
330
42
100
AcDbScale
 70
     0
300
6" = 1'-0"
140
6.0
141
12.0
290
     0
  0
SCALE
  5
53
102
{ACAD_REACTORS
330
42
102
}
330
42
100
AcDbScale
 70
     0
300
1'-0" = 1'-0"
140
12.0
141
12.0
290
     0
  0
ACDBSECTIONVIEWSTYLE
  5
69
102
{ACAD_REACTORS
330
68
102
}
330
68
100
AcDbModelDocViewStyle
 70
     0
  3
Imperial24
290
     1
300
Imperial24
 90
        0
100
AcDbSectionViewStyle
 70
     0
 71
     0
 90
       78
 71
     1
340
55
 62
   256
 40
0.24
340
0
340
0
 62
   256
 40
0.24
300
I, O, Q, S, X, Z
 40
0.48
 90
        3
 40
0.18
 90
        1
 71
     2
340
5D
 90
       25
 62
   256
340
5D
 90
       50
 62
   256
 40
0.24
 40
0.0
 40
0.24
 71
     3
340
55
 62
   256
 40
0.24
 90
        1
 40
0.75
 90
        1
300
%<\AcVar ViewType \f "%tc1">% %<\AcVar ViewSectionStartId>%-%<\AcVar ViewSectionEndId>%\PSCALE %<\AcVar ViewScale \f "%sn">%
 71
     4
 62
   256
 62
   257
300
ANSI31
 40
1.0
 90
        0
290
     0
290
     0
 90
        6
 40
0.0
 40
1.570796326794896
 40
0.2617993877991494
 40
1.308996938995747
 40
-0.2617993877991494
 40
1.832595714594046
  0
TABLESTYLE
  5
65
102
{ACAD_XDICTIONARY
360
F1
102
}
102
{ACAD_REACTORS
330
64
102
}
330
64
100
AcDbTableStyle
280
     0
  3
Standard
 70
     0
 71
     0
 40
0.06
 41
0.06
280
     0
281
     0
  7
Standard
140
0.18
170
     2
 62
     0
 63
     7
283
     0
 90
      512
 91
        0
  1

274
    -2
284
     1
 64
     0
275
    -2
285
     1
 65
     0
276
    -2
286
     1
 66
     0
277
    -2
287
     1
 67
     0
278
    -2
288
     1
 68
     0
279
    -2
289
     1
 69
     0
  7
Standard
140
0.25
170
     5
 62
     0
 63
     7
283
     0
 90
      512
 91
        0
  1

274
    -2
284
     1
 64
     0
275
    -2
285
     1
 65
     0
276
    -2
286
     1
 66
     0
277
    -2
287
     1
 67
     0
278
    -2
288
     1
 68
     0
279
    -2
289
     1
 69
     0
  7
Standard
140
0.18
170
     5
 62
     0
 63
     7
283
     0
 90
      512
 91
        0
  1

274
    -2
284
     1
 64
     0
275
    -2
285
     1
 65
     0
276
    -2
286
     1
 66
     0
277
    -2
287
     1
 67
     0
278
    -2
288
     1
 68
     0
279
    -2
289
     1
 69
     0
  0
VISUALSTYLE
  5
2F
102
{ACAD_REACTORS
330
29
102
}
330
29
100
AcDbVisualStyle
  2
2dWireframe
 70
     4
177
     3
291
     0
 70
    58
 90
        0
176
     1
 90
        2
176
     1
 90
        0
176
     1
 90
        0
176
     1
 40
0.6
176
     1
 40
30.0
176
     1
 62
     7
420
 16777215
176
     1
 90
        1
176
     1
 90
        4
176
     1
 62
     7
176
     1
 62
   257
176
     1
 90
        1
176
     1
 90
        1
176
     1
 40
1.0
176
     1
 90
        0
176
     1
 62
   257
176
     1
 40
1.0
176
     1
 90
        1
176
     1
 90
        6
176
     1
 90
        2
176
     1
 62
     7
176
     1
 90
        5
176
     1
 90
        0
176
     1
 90
        0
176
     1
290
     0
176
     1
 90
        1
176
     1
 40
0.0
176
     1
 90
        0
176
     1
290
     1
176
     1
290
     1
176
     1
290
     0
176
     1
290
     0
176
     1
290
     0
176
     1
290
     0
176
     1
290
     0
176
     1
290
     0
176
     1
290
     0
176
     1
 90
       50
176
     1
 40
0.0
176
     1
 40
1.0
176
     1
 90
        0
176
     1
 62
    18
420
        0
176
     1
 90
       50
176
     1
 90
        3
176
     1
 62
     5
420
      255
176
     1
290
     0
176
     1
 90
       50
176
     1
 90
       50
176
     1
 90
       50
176
     1
290
     0
176
     1
 90
       50
176
     1
 62
   256
176
     0
 40
1.0
176
     0
 90
        2
176
     1
  1
strokes_ogs.tif
176
     1
290
     0
176
     1
 40
1.0
176
     1
 40
1.0
176
     1
  0
VISUALSTYLE
  5
2E
102
{ACAD_REACTORS
330
29
102
}
330
29
100
AcDbVisualStyle
  2
Basic
 70
     7
177
     3
291
     1
 70
    58
 90
        1
176
     1
 90
        0
176
     1
 90
        1
176
     1
 90
        0
176
     1
 40
0.6
176
     1
 40
30.0
176
     1
 62
     7
420
 16777215
176
     1
 90
        0
176
     1
 90
        4
176
     1
 62
     7
176
     1
 62
   257
176
     1
 90
        1
176
     1
 90
        1
176
     1
 40
1.0
176
     1
 90
        8
176
     1
 62
     7
176
     1
 40
1.0
176
     1
 90
        1
176
     1
 90
        6
176
     1
 90
        2
176
     1
 62
     7
176
     1
 90
        5
176
     1
 90
        0
176
     1
 90
        0
176
     1
290
     0
176
     1
 90
        1
176
     1
 40
0.0
176
     1
 90
        0
176
     1
290
     0
176
     1
290
     1
176
     1
290
     1
176
     1
290
     0
176
     1
290
     0
176
     1
290
     0
176
     1
290
     0
176
     1
290
     0
176
     1
290
     0
176
     1
 90
       50
176
     1
 40
0.0
176
     1
 40
1.0
176
     1
 90
        0
176
     1
 62
    18
420
        0
176
     1
 90
       50
176
     1
 90
        3
176
     1
 62
     5
420
      255
176
     1
290
     0
176
     1
 90
       50
176
     1
 90
       50
176
     1
 90
       50
176
     1
290
     0
176
     1
 90
       50
176
     1
 62
   256
176
     0
 40
1.0
176
     0
 90
        2
176
     1
  1
strokes_ogs.tif
176
     1
290
     0
176
     1
 40
1.0
176
     1
 40
1.0
176
     1
  0
VISUALSTYLE
  5
35
102
{ACAD_REACTORS
330
29
102
}
330
29
100
AcDbVisualStyle
  2
Brighten
 70
    12
177
     3
291
     1
 70
    58
 90
        2
176
     1
 90
        2
176
     1
 90
        0
176
     1
 90
        0
176
     1
 40
0.6
176
     1
 40
30.0
176
     1
 62
     7
420
 16777215
176
     1
 90
        1
176
     1
 90
        4
176
     1
 62
     7
176
     1
 62
   257
176
     1
 90
        1
176
     1
 90
        1
176
     1
 40
1.0
176
     1
 90
        8
176
     1
 62
     7
176
     1
 40
1.0
176
     1
 90
        1
176
     1
 90
        6
176
     1
 90
        2
176
     1
 62
     7
176
     1
 90
        5
176
     1
 90
        0
176
     1
 90
        0
176
     1
290
     0
176
     1
 90
        1
176
     1
 40
50.0
176
     1
 90
        0
176
     1
290
     0
176
     1
290
     1
176
     1
290
     1
176
     1
290
     0
176
     1
290
     0
176
     1
290
     0
176
     1
290
     0
176
     1
290
     0
176
     1
290
     0
176
     1
 90
       50
176
     1
 40
0.0
176
     1
 40
1.0
176
     1
 90
        0
176
     1
 62
    18
420
        0
176
     1
 90
       50
176
     1
 90
        3
176
     1
 62
     5
420
      255
176
     1
290
     0
176
     1
 90
       50
176
     1
 90
       50
176
     1
 90
       50
176
     1
290
     0
176
     1
 90
       50
176
     1
 62
   256
176
     0
 40
1.0
176
     0
 90
        2
176
     1
  1
strokes_ogs.tif
176
     1
290
     0
176
     1
 40
1.0
176
     1
 40
1.0
176
     1
  0
VISUALSTYLE
  5
39
102
{ACAD_REACTORS
330
29
102
}
330
29
100
AcDbVisualStyle
  2
ColorChange
 70
    16
177
     3
291
     1
 70
    58
 90
        2
176
     1
 90
        2
176
     1
 90
        3
176
     1
 90
        0
176
     1
 40
0.6
176
     1
 40
30.0
176
     1
 62
     8
420
  8421504
176
     1
 90
        1
176
     1
 90
        4
176
     1
 62
     7
176
     1
 62
   257
176
     1
 90
        1
176
     1
 90
        1
176
     1
 40
1.0
176
     1
 90
        8
176
     1
 62
     8
420
  8421504
176
     1
 40
1.0
176
     1
 90
        1
176
     1
 90
        6
176
     1
 90
        2
176
     1
 62
     7
176
     1
 90
        5
176
     1
 90
        0
176
     1
 90
        0
176
     1
290
     0
176
     1
 90
        1
176
     1
 40
0.0
176
     1
 90
        0
176
     1
290
     0
176
     1
290
     1
176
     1
290
     1
176
     1
290
     0
176
     1
290
     0
176
     1
290
     0
176
     1
290
     0
176
     1
290
     0
176
     1
290
     0
176
     1
 90
       50
176
     1
 40
0.0
176
     1
 40
1.0
176
     1
 90
        0
176
     1
 62
    18
420
        0
176
     1
 90
       50
176
     1
 90
        3
176
     1
 62
     5
420
      255
176
     1
290
     0
176
     1
 90
       50
176
     1
 90
       50
176
     1
 90
       50
176
     1
290
     0
176
     1
 90
       50
176
     1
 62
   256
176
     0
 40
1.0
176
     0
 90
        2
176
     1
  1
strokes_ogs.tif
176
     1
290
     0
176
     1
 40
1.0
176
     1
 40
1.0
176
     1
  0
VISUALSTYLE
  5
32
102
{ACAD_REACTORS
330
29
102
}
330
29
100
AcDbVisualStyle
  2
Conceptual
 70
     9
177
     3
291
     0
 70
    58
 90
        3
176
     1
 90
        2
176
     1
 90
        0
176
     1
 90
        0
176
     1
 40
0.6
176
     1
 40
30.0
176
     1
 62
     7
420
 16777215
176
     1
 90
        2
176
     1
 90
        2
176
     1
 62
     7
176
     1
 62
   257
176
     1
 90
        1
176
     1
 90
        1
176
     1
 40
179.0
176
     1
 90
        8
176
     1
 62
     7
176
     1
 40
1.0
176
     1
 90
        1
176
     1
 90
        6
176
     1
 90
        2
176
     1
 62
     7
176
     1
 90
        3
176
     1
 90
        0
176
     1
 90
        0
176
     1
290
     0
176
     1
 90
        1
176
     1
 40
0.0
176
     1
 90
        0
176
     1
290
     0
176
     1
290
     1
176
     1
290
     1
176
     1
290
     0
176
     1
290
     0
176
     1
290
     0
176
     1
290
     0
176
     1
290
     0
176
     1
290
     0
176
     1
 90
       50
176
     1
 40
0.0
176
     1
 40
1.0
176
     1
 90
        0
176
     1
 62
    18
420
        0
176
     1
 90
       50
176
     1
 90
        3
176
     1
 62
     5
420
      255
176
     1
290
     0
176
     1
 90
       50
176
     1
 90
       50
176
     1
 90
       50
176
     1
290
     0
176
     1
 90
       50
176
     1
 62
   256
176
     0
 40
1.0
176
     0
 90
        2
176
     1
  1
strokes_ogs.tif
176
     1
290
     0
176
     1
 40
1.0
176
     1
 40
1.0
176
     1
  0
VISUALSTYLE
  5
34
102
{ACAD_REACTORS
330
29
102
}
330
29
100
AcDbVisualStyle
  2
Dim
 70
    11
177
     3
291
     1
 70
    58
 90
        2
176
     1
 90
        2
176
     1
 90
        0
176
     1
 90
        0
176
     1
 40
0.6
176
     1
 40
30.0
176
     1
 62
     7
420
 16777215
176
     1
 90
        1
176
     1
 90
        4
176
     1
 62
     7
176
     1
 62
   257
176
     1
 90
        1
176
     1
 90
        1
176
     1
 40
1.0
176
     1
 90
        8
176
     1
 62
     7
176
     1
 40
1.0
176
     1
 90
        1
176
     1
 90
        6
176
     1
 90
        2
176
     1
 62
     7
176
     1
 90
        5
176
     1
 90
        0
176
     1
 90
        0
176
     1
290
     0
176
     1
 90
        1
176
     1
 40
-50.0
176
     1
 90
        0
176
     1
290
     0
176
     1
290
     1
176
     1
290
     1
176
     1
290
     0
176
     1
290
     0
176
     1
290
     0
176
     1
290
     0
176
     1
290
     0
176
     1
290
     0
176
     1
 90
       50
176
     1
 40
0.0
176
     1
 40
1.0
176
     1
 90
        0
176
     1
 62
    18
420
        0
176
     1
 90
       50
176
     1
 90
        3
176
     1
 62
     5
420
      255
176
     1
290
     0
176
     1
 90
       50
176
     1
 90
       50
176
     1
 90
       50
176
     1
290
     0
176
     1
 90
       50
176
     1
 62
   256
176
     0
 40
1.0
176
     0
 90
        2
176
     1
  1
strokes_ogs.tif
176
     1
290
     0
176
     1
 40
1.0
176
     1
 40
1.0
176
     1
  0
VISUALSTYLE
  5
41
102
{ACAD_REACTORS
330
29
102
}
330
29
100
AcDbVisualStyle
  2
EdgeColorOff
 70
    22
177
     3
291
     1
 70
    58
 90
        2
176
     0
 90
        2
176
     0
 90
        0
176
     0
 90
        0
176
     0
 40
0.6
176
     0
 40
30.0
176
     0
 62
     7
420
 16777215
176
     0
 90
        1
176
     0
 90
        4
176
     0
 62
     7
176
     0
 62
   257
176
     0
 90
        1
176
     0
 90
        1
176
     0
 40
1.0
176
     0
 90
        8
176
     2
 62
     7
176
     0
 40
1.0
176
     0
 90
        1
176
     0
 90
        6
176
     0
 90
        2
176
     0
 62
     7
176
     0
 90
        5
176
     0
 90
        0
176
     0
 90
        0
176
     0
290
     0
176
     0
 90
        1
176
     0
 40
0.0
176
     0
 90
        0
176
     0
290
     0
176
     0
290
     1
176
     0
290
     1
176
     0
290
     0
176
     0
290
     0
176
     0
290
     0
176
     0
290
     0
176
     0
290
     0
176
     0
290
     0
176
     0
 90
       50
176
     0
 40
0.0
176
     0
 40
1.0
176
     0
 90
        0
176
     0
 62
    18
420
        0
176
     0
 90
       50
176
     0
 90
        3
176
     0
 62
     5
420
      255
176
     0
290
     0
176
     0
 90
       50
176
     0
 90
       50
176
     0
 90
       50
176
     0
290
     0
176
     0
 90
       50
176
     0
 62
   256
176
     0
 40
1.0
176
     0
 90
        2
176
     0
  1
strokes_ogs.tif
176
     0
290
     0
176
     0
 40
1.0
176
     0
 40
1.0
176
     0
  0
VISUALSTYLE
  5
38
102
{ACAD_REACTORS
330
29
102
}
330
29
100
AcDbVisualStyle
  2
Facepattern
 70
    15
177
     3
291
     1
 70
    58
 90
        2
176
     1
 90
        2
176
     1
 90
        0
176
     1
 90
        0
176
     1
 40
0.6
176
     1
 40
30.0
176
     1
 62
     7
420
 16777215
176
     1
 90
        1
176
     1
 90
        4
176
     1
 62
     7
176
     1
 62
   257
176
     1
 90
        1
176
     1
 90
        1
176
     1
 40
1.0
176
     1
 90
        8
176
     1
 62
     7
176
     1
 40
1.0
176
     1
 90
        1
176
     1
 90
        6
176
     1
 90
        2
176
     1
 62
     7
176
     1
 90
        5
176
     1
 90
        0
176
     1
 90
        0
176
     1
290
     0
176
     1
 90
        1
176
     1
 40
0.0
176
     1
 90
        0
176
     1
290
     0
176
     1
290
     1
176
     1
290
     1
176
     1
290
     0
176
     1
290
     0
176
     1
290
     0
176
     1
290
     0
176
     1
290
     0
176
     1
290
     0
176
     1
 90
       50
176
     1
 40
0.0
176
     1
 40
1.0
176
     1
 90
        0
176
     1
 62
    18
420
        0
176
     1
 90
       50
176
     1
 90
        3
176
     1
 62
     5
420
      255
176
     1
290
     0
176
     1
 90
       50
176
     1
 90
       50
176
     1
 90
       50
176
     1
290
     0
176
     1
 90
       50
176
     1
 62
   256
176
     0
 40
1.0
176
     0
 90
        2
176
     1
  1
strokes_ogs.tif
176
     1
290
     0
176
     1
 40
1.0
176
     1
 40
1.0
176
     1
  0
VISUALSTYLE
  5
2A
102
{ACAD_REACTORS
330
29
102
}
330
29
100
AcDbVisualStyle
  2
Flat
 70
     0
177
     3
291
     1
 70
    58
 90
        2
176
     1
 90
        1
176
     1
 90
        1
176
     1
 90
        2
176
     1
 40
0.6
176
     1
 40
30.0
176
     1
 62
     7
420
 16777215
176
     1
 90
        0
176
     1
 90
        0
176
     1
 62
     7
176
     1
 62
   257
176
     1
 90
        1
176
     1
 90
        1
176
     1
 40
1.0
176
     1
 90
        8
176
     1
 62
     7
176
     1
 40
1.0
176
     1
 90
        1
176
     1
 90
        6
176
     1
 90
        2
176
     1
 62
     7
176
     1
 90
        5
176
     1
 90
        0
176
     1
 90
        0
176
     1
290
     0
176
     1
 90
       13
176
     1
 40
0.0
176
     1
 90
        0
176
     1
290
     0
176
     1
290
     1
176
     1
290
     1
176
     1
290
     0
176
     1
290
     0
176
     1
290
     0
176
     1
290
     0
176
     1
290
     0
176
     1
290
     0
176
     1
 90
       50
176
     1
 40
0.0
176
     1
 40
1.0
176
     1
 90
        0
176
     1
 62
    18
420
        0
176
     1
 90
       50
176
     1
 90
        3
176
     1
 62
     5
420
      255
176
     1
290
     0
176
     1
 90
       50
176
     1
 90
       50
176
     1
 90
       50
176
     1
290
     0
176
     1
 90
       50
176
     1
 62
   256
176
     0
 40
1.0
176
     0
 90
        2
176
     1
  1
strokes_ogs.tif
176
     1
290
     0
176
     1
 40
1.0
176
     1
 40
1.0
176
     1
  0
VISUALSTYLE
  5
2B
102
{ACAD_REACTORS
330
29
102
}
330
29
100
AcDbVisualStyle
  2
FlatWithEdges
 70
     1
177
     3
291
     1
 70
    58
 90
        2
176
     1
 90
        1
176
     1
 90
        1
176
     1
 90
        2
176
     1
 40
0.6
176
     1
 40
30.0
176
     1
 62
     7
420
 16777215
176
     1
 90
        1
176
     1
 90
        0
176
     1
 62
     7
176
     1
 62
   257
176
     1
 90
        1
176
     1
 90
        1
176
     1
 40
1.0
176
     1
 90
        0
176
     1
 62
   257
176
     1
 40
1.0
176
     1
 90
        1
176
     1
 90
        6
176
     1
 90
        2
176
     1
 62
     7
176
     1
 90
        5
176
     1
 90
        0
176
     1
 90
        0
176
     1
290
     0
176
     1
 90
       13
176
     1
 40
0.0
176
     1
 90
        0
176
     1
290
     0
176
     1
290
     1
176
     1
290
     1
176
     1
290
     0
176
     1
290
     0
176
     1
290
     0
176
     1
290
     0
176
     1
290
     0
176
     1
290
     0
176
     1
 90
       50
176
     1
 40
0.0
176
     1
 40
1.0
176
     1
 90
        0
176
     1
 62
    18
420
        0
176
     1
 90
       50
176
     1
 90
        3
176
     1
 62
     5
420
      255
176
     1
290
     0
176
     1
 90
       50
176
     1
 90
       50
176
     1
 90
       50
176
     1
290
     0
176
     1
 90
       50
176
     1
 62
   256
176
     0
 40
1.0
176
     0
 90
        2
176
     1
  1
strokes_ogs.tif
176
     1
290
     0
176
     1
 40
1.0
176
     1
 40
1.0
176
     1
  0
VISUALSTYLE
  5
2C
102
{ACAD_REACTORS
330
29
102
}
330
29
100
AcDbVisualStyle
  2
Gouraud
 70
     2
177
     3
291
     1
 70
    58
 90
        2
176
     1
 90
        2
176
     1
 90
        1
176
     1
 90
        2
176
     1
 40
0.6
176
     1
 40
30.0
176
     1
 62
     7
420
 16777215
176
     1
 90
        0
176
     1
 90
        0
176
     1
 62
     7
176
     1
 62
   257
176
     1
 90
        1
176
     1
 90
        1
176
     1
 40
1.0
176
     1
 90
        0
176
     1
 62
     7
176
     1
 40
1.0
176
     1
 90
        1
176
     1
 90
        6
176
     1
 90
        2
176
     1
 62
     7
176
     1
 90
        5
176
     1
 90
        0
176
     1
 90
        0
176
     1
290
     0
176
     1
 90
       13
176
     1
 40
0.0
176
     1
 90
        0
176
     1
290
     0
176
     1
290
     1
176
     1
290
     1
176
     1
290
     0
176
     1
290
     0
176
     1
290
     0
176
     1
290
     0
176
     1
290
     0
176
     1
290
     0
176
     1
 90
       50
176
     1
 40
0.0
176
     1
 40
1.0
176
     1
 90
        0
176
     1
 62
    18
420
        0
176
     1
 90
       50
176
     1
 90
        3
176
     1
 62
     5
420
      255
176
     1
290
     0
176
     1
 90
       50
176
     1
 90
       50
176
     1
 90
       50
176
     1
290
     0
176
     1
 90
       50
176
     1
 62
   256
176
     0
 40
1.0
176
     0
 90
        2
176
     1
  1
strokes_ogs.tif
176
     1
290
     0
176
     1
 40
1.0
176
     1
 40
1.0
176
     1
  0
VISUALSTYLE
  5
2D
102
{ACAD_REACTORS
330
29
102
}
330
29
100
AcDbVisualStyle
  2
GouraudWithEdges
 70
     3
177
     3
291
     1
 70
    58
 90
        2
176
     1
 90
        2
176
     1
 90
        1
176
     1
 90
        2
176
     1
 40
0.6
176
     1
 40
30.0
176
     1
 62
     7
420
 16777215
176
     1
 90
        1
176
     1
 90
        0
176
     1
 62
     7
176
     1
 62
   257
176
     1
 90
        1
176
     1
 90
        1
176
     1
 40
1.0
176
     1
 90
        0
176
     1
 62
   257
176
     1
 40
1.0
176
     1
 90
        1
176
     1
 90
        6
176
     1
 90
        2
176
     1
 62
     7
176
     1
 90
        5
176
     1
 90
        0
176
     1
 90
        0
176
     1
290
     0
176
     1
 90
       13
176
     1
 40
0.0
176
     1
 90
        0
176
     1
290
     0
176
     1
290
     1
176
     1
290
     1
176
     1
290
     0
176
     1
290
     0
176
     1
290
     0
176
     1
290
     0
176
     1
290
     0
176
     1
290
     0
176
     1
 90
       50
176
     1
 40
0.0
176
     1
 40
1.0
176
     1
 90
        0
176
     1
 62
    18
420
        0
176
     1
 90
       50
176
     1
 90
        3
176
     1
 62
     5
420
      255
176
     1
290
     0
176
     1
 90
       50
176
     1
 90
       50
176
     1
 90
       50
176
     1
290
     0
176
     1
 90
       50
176
     1
 62
   256
176
     0
 40
1.0
176
     0
 90
        2
176
     1
  1
strokes_ogs.tif
176
     1
290
     0
176
     1
 40
1.0
176
     1
 40
1.0
176
     1
  0
VISUALSTYLE
  5
31
102
{ACAD_REACTORS
330
29
102
}
330
29
100
AcDbVisualStyle
  2
Hidden
 70
     6
177
     3
291
     0
 70
    58
 90
        1
176
     1
 90
        2
176
     1
 90
        2
176
     1
 90
        0
176
     1
 40
0.6
176
     1
 40
30.0
176
     1
 62
     7
420
 16777215
176
     1
 90
        2
176
     1
 90
        2
176
     1
 62
     7
176
     1
 62
   257
176
     1
 90
        2
176
     1
 90
        1
176
     1
 40
40.0
176
     1
 90
        0
176
     1
 62
   257
176
     1
 40
1.0
176
     1
 90
        1
176
     1
 90
        6
176
     1
 90
        2
176
     1
 62
     7
176
     1
 90
        3
176
     1
 90
        0
176
     1
 90
        0
176
     1
290
     0
176
     1
 90
        1
176
     1
 40
0.0
176
     1
 90
        0
176
     1
290
     0
176
     1
290
     1
176
     1
290
     1
176
     1
290
     0
176
     1
290
     0
176
     1
290
     0
176
     1
290
     0
176
     1
290
     0
176
     1
290
     0
176
     1
 90
       50
176
     1
 40
0.0
176
     1
 40
1.0
176
     1
 90
        0
176
     1
 62
    18
420
        0
176
     1
 90
       50
176
     1
 90
        3
176
     1
 62
     5
420
      255
176
     1
290
     0
176
     1
 90
       50
176
     1
 90
       50
176
     1
 90
       50
176
     1
290
     0
176
     1
 90
       50
176
     1
 62
   256
176
     0
 40
1.0
176
     0
 90
        2
176
     1
  1
strokes_ogs.tif
176
     1
290
     0
176
     1
 40
1.0
176
     1
 40
1.0
176
     1
  0
VISUALSTYLE
  5
3F
102
{ACAD_REACTORS
330
29
102
}
330
29
100
AcDbVisualStyle
  2
JitterOff
 70
    20
177
     3
291
     1
 70
    58
 90
        2
176
     0
 90
        2
176
     0
 90
        0
176
     0
 90
        0
176
     0
 40
0.6
176
     0
 40
30.0
176
     0
 62
     7
420
 16777215
176
     0
 90
        1
176
     0
 90
        4
176
     0
 62
     7
176
     0
 62
   257
176
     0
 90
        1
176
     0
 90
        1
176
     0
 40
1.0
176
     0
 90
       10
176
     2
 62
     7
176
     0
 40
1.0
176
     0
 90
        1
176
     0
 90
        6
176
     0
 90
        2
176
     0
 62
     7
176
     0
 90
        5
176
     0
 90
        0
176
     0
 90
        0
176
     0
290
     0
176
     0
 90
        1
176
     0
 40
0.0
176
     0
 90
        0
176
     0
290
     0
176
     0
290
     1
176
     0
290
     1
176
     0
290
     0
176
     0
290
     0
176
     0
290
     0
176
     0
290
     0
176
     0
290
     0
176
     0
290
     0
176
     0
 90
       50
176
     0
 40
0.0
176
     0
 40
1.0
176
     0
 90
        0
176
     0
 62
    18
420
        0
176
     0
 90
       50
176
     0
 90
        3
176
     0
 62
     5
420
      255
176
     0
290
     0
176
     0
 90
       50
176
     0
 90
       50
176
     0
 90
       50
176
     0
290
     0
176
     0
 90
       50
176
     0
 62
   256
176
     0
 40
1.0
176
     0
 90
        2
176
     0
  1
strokes_ogs.tif
176
     0
290
     0
176
     0
 40
1.0
176
     0
 40
1.0
176
     0
  0
VISUALSTYLE
  5
37
102
{ACAD_REACTORS
330
29
102
}
330
29
100
AcDbVisualStyle
  2
Linepattern
 70
    14
177
     3
291
     1
 70
    58
 90
        2
176
     1
 90
        2
176
     1
 90
        0
176
     1
 90
        0
176
     1
 40
0.6
176
     1
 40
30.0
176
     1
 62
     7
420
 16777215
176
     1
 90
        1
176
     1
 90
        4
176
     1
 62
     7
176
     1
 62
   257
176
     1
 90
        7
176
     1
 90
        7
176
     1
 40
1.0
176
     1
 90
        8
176
     1
 62
     7
176
     1
 40
1.0
176
     1
 90
        1
176
     1
 90
        6
176
     1
 90
        2
176
     1
 62
     7
176
     1
 90
        5
176
     1
 90
        0
176
     1
 90
        0
176
     1
290
     0
176
     1
 90
        1
176
     1
 40
0.0
176
     1
 90
        0
176
     1
290
     0
176
     1
290
     1
176
     1
290
     1
176
     1
290
     0
176
     1
290
     0
176
     1
290
     0
176
     1
290
     0
176
     1
290
     0
176
     1
290
     0
176
     1
 90
       50
176
     1
 40
0.0
176
     1
 40
1.0
176
     1
 90
        0
176
     1
 62
    18
420
        0
176
     1
 90
       50
176
     1
 90
        3
176
     1
 62
     5
420
      255
176
     1
290
     0
176
     1
 90
       50
176
     1
 90
       50
176
     1
 90
       50
176
     1
290
     0
176
     1
 90
       50
176
     1
 62
   256
176
     0
 40
1.0
176
     0
 90
        2
176
     1
  1
strokes_ogs.tif
176
     1
290
     0
176
     1
 40
1.0
176
     1
 40
1.0
176
     1
  0
VISUALSTYLE
  5
40
102
{ACAD_REACTORS
330
29
102
}
330
29
100
AcDbVisualStyle
  2
OverhangOff
 70
    21
177
     3
291
     1
 70
    58
 90
        2
176
     0
 90
        2
176
     0
 90
        0
176
     0
 90
        0
176
     0
 40
0.6
176
     0
 40
30.0
176
     0
 62
     7
420
 16777215
176
     0
 90
        1
176
     0
 90
        4
176
     0
 62
     7
176
     0
 62
   257
176
     0
 90
        1
176
     0
 90
        1
176
     0
 40
1.0
176
     0
 90
        9
176
     2
 62
     7
176
     0
 40
1.0
176
     0
 90
        1
176
     0
 90
        6
176
     0
 90
        2
176
     0
 62
     7
176
     0
 90
        5
176
     0
 90
        0
176
     0
 90
        0
176
     0
290
     0
176
     0
 90
        1
176
     0
 40
0.0
176
     0
 90
        0
176
     0
290
     0
176
     0
290
     1
176
     0
290
     1
176
     0
290
     0
176
     0
290
     0
176
     0
290
     0
176
     0
290
     0
176
     0
290
     0
176
     0
290
     0
176
     0
 90
       50
176
     0
 40
0.0
176
     0
 40
1.0
176
     0
 90
        0
176
     0
 62
    18
420
        0
176
     0
 90
       50
176
     0
 90
        3
176
     0
 62
     5
420
      255
176
     0
290
     0
176
     0
 90
       50
176
     0
 90
       50
176
     0
 90
       50
176
     0
290
     0
176
     0
 90
       50
176
     0
 62
   256
176
     0
 40
1.0
176
     0
 90
        2
176
     0
  1
strokes_ogs.tif
176
     0
290
     0
176
     0
 40
1.0
176
     0
 40
1.0
176
     0
  0
VISUALSTYLE
  5
33
102
{ACAD_REACTORS
330
29
102
}
330
29
100
AcDbVisualStyle
  2
Realistic
 70
     8
177
     3
291
     0
 70
    58
 90
        2
176
     1
 90
        3
176
     1
 90
        0
176
     1
 90
        2
176
     1
 40
0.6
176
     1
 40
30.0
176
     1
 62
     7
420
 16777215
176
     1
 90
        0
176
     1
 90
        0
176
     1
 62
     7
176
     1
 62
   257
176
     1
 90
        1
176
     1
 90
        1
176
     1
 40
1.0
176
     1
 90
        8
176
     1
 62
   257
176
     1
 40
1.0
176
     1
 90
        1
176
     1
 90
        6
176
     1
 90
        2
176
     1
 62
     7
176
     1
 90
        3
176
     1
 90
        0
176
     1
 90
        0
176
     1
290
     0
176
     1
 90
       13
176
     1
 40
0.0
176
     1
 90
        0
176
     1
290
     0
176
     1
290
     1
176
     1
290
     1
176
     1
290
     0
176
     1
290
     0
176
     1
290
     0
176
     1
290
     0
176
     1
290
     0
176
     1
290
     0
176
     1
 90
       50
176
     1
 40
0.0
176
     1
 40
1.0
176
     1
 90
        0
176
     1
 62
    18
420
        0
176
     1
 90
       50
176
     1
 90
        3
176
     1
 62
     5
420
      255
176
     1
290
     0
176
     1
 90
       50
176
     1
 90
       50
176
     1
 90
       50
176
     1
290
     0
176
     1
 90
       50
176
     1
 62
   256
176
     0
 40
1.0
176
     0
 90
        2
176
     1
  1
strokes_ogs.tif
176
     1
290
     0
176
     1
 40
1.0
176
     1
 40
1.0
176
     1
  0
VISUALSTYLE
  5
3E
102
{ACAD_REACTORS
330
29
102
}
330
29
100
AcDbVisualStyle
  2
Shaded
 70
    27
177
     3
291
     0
 70
    58
 90
        2
176
     1
 90
        2
176
     1
 90
        1
176
     1
 90
        2
176
     1
 40
0.6
176
     1
 40
30.0
176
     1
 62
     7
420
 16777215
176
     1
 90
        0
176
     1
 90
        4
176
     1
 62
     7
176
     1
 62
   257
176
     1
 90
        1
176
     1
 90
        1
176
     1
 40
1.0
176
     1
 90
        8
176
     1
 62
   257
176
     1
 40
1.0
176
     1
 90
        1
176
     1
 90
        6
176
     1
 90
        2
176
     1
 62
     8
420
  7895160
176
     1
 90
        3
176
     1
 90
        0
176
     1
 90
        0
176
     1
290
     0
176
     1
 90
        5
176
     1
 40
0.0
176
     1
 90
        0
176
     1
290
     0
176
     1
290
     1
176
     1
290
     1
176
     1
290
     0
176
     1
290
     0
176
     1
290
     0
176
     1
290
     0
176
     1
290
     0
176
     1
290
     0
176
     1
 90
       50
176
     1
 40
0.0
176
     1
 40
1.0
176
     1
 90
        0
176
     1
 62
    18
420
        0
176
     1
 90
       50
176
     1
 90
        3
176
     1
 62
     5
420
      255
176
     1
290
     0
176
     1
 90
       50
176
     1
 90
       50
176
     1
 90
       50
176
     1
290
     0
176
     1
 90
       50
176
     1
 62
   256
176
     0
 40
1.0
176
     0
 90
        2
176
     1
  1
strokes_ogs.tif
176
     1
290
     0
176
     1
 40
1.0
176
     1
 40
1.0
176
     1
  0
VISUALSTYLE
  5
3D
102
{ACAD_REACTORS
330
29
102
}
330
29
100
AcDbVisualStyle
  2
Shaded with edges
 70
    26
177
     3
291
     0
 70
    58
 90
        2
176
     1
 90
        2
176
     1
 90
        1
176
     1
 90
        2
176
     1
 40
0.6
176
     1
 40
30.0
176
     1
 62
     7
420
 16777215
176
     1
 90
        1
176
     1
 90
        2
176
     1
 62
     7
176
     1
 62
   257
176
     1
 90
        2
176
     1
 90
        1
176
     1
 40
1.0
176
     1
 90
        8
176
     1
 62
   257
176
     1
 40
1.0
176
     1
 90
        1
176
     1
 90
        6
176
     1
 90
        2
176
     1
 62
     7
176
     1
 90
        3
176
     1
 90
        0
176
     1
 90
        0
176
     1
290
     0
176
     1
 90
        5
176
     1
 40
0.0
176
     1
 90
        0
176
     1
290
     0
176
     1
290
     1
176
     1
290
     1
176
     1
290
     0
176
     1
290
     0
176
     1
290
     0
176
     1
290
     0
176
     1
290
     0
176
     1
290
     0
176
     1
 90
       50
176
     1
 40
0.0
176
     1
 40
1.0
176
     1
 90
        0
176
     1
 62
    18
420
        0
176
     1
 90
       50
176
     1
 90
        3
176
     1
 62
     5
420
      255
176
     1
290
     0
176
     1
 90
       50
176
     1
 90
       50
176
     1
 90
       50
176
     1
290
     0
176
     1
 90
       50
176
     1
 62
   256
176
     0
 40
1.0
176
     0
 90
        2
176
     1
  1
strokes_ogs.tif
176
     1
290
     0
176
     1
 40
1.0
176
     1
 40
1.0
176
     1
  0
VISUALSTYLE
  5
3A
102
{ACAD_REACTORS
330
29
102
}
330
29
100
AcDbVisualStyle
  2
Shades of Gray
 70
    23
177
     3
291
     0
 70
    58
 90
        2
176
     1
 90
        2
176
     1
 90
        3
176
     1
 90
        0
176
     1
 40
0.6
176
     1
 40
30.0
176
     1
 62
     7
420
 16777215
176
     1
 90
        2
176
     1
 90
        2
176
     1
 62
     7
176
     1
 62
     7
176
     1
 90
        1
176
     1
 90
        1
176
     1
 40
40.0
176
     1
 90
        8
176
     1
 62
     7
176
     1
 40
1.0
176
     1
 90
        1
176
     1
 90
        6
176
     1
 90
        2
176
     1
 62
     7
176
     1
 90
        3
176
     1
 90
        0
176
     1
 90
        0
176
     1
290
     0
176
     1
 90
        1
176
     1
 40
0.0
176
     1
 90
        0
176
     1
290
     0
176
     1
290
     1
176
     1
290
     1
176
     1
290
     0
176
     1
290
     0
176
     1
290
     0
176
     1
290
     0
176
     1
290
     0
176
     1
290
     0
176
     1
 90
       50
176
     1
 40
0.0
176
     1
 40
1.0
176
     1
 90
        0
176
     1
 62
    18
420
        0
176
     1
 90
       50
176
     1
 90
        3
176
     1
 62
     5
420
      255
176
     1
290
     0
176
     1
 90
       50
176
     1
 90
       50
176
     1
 90
       50
176
     1
290
     0
176
     1
 90
       50
176
     1
 62
   256
176
     0
 40
1.0
176
     0
 90
        2
176
     1
  1
strokes_ogs.tif
176
     1
290
     0
176
     1
 40
1.0
176
     1
 40
1.0
176
     1
  0
VISUALSTYLE
  5
3B
102
{ACAD_REACTORS
330
29
102
}
330
29
100
AcDbVisualStyle
  2
Sketchy
 70
    24
177
     3
291
     0
 70
    58
 90
        1
176
     1
 90
        2
176
     1
 90
        2
176
     1
 90
        0
176
     1
 40
0.6
176
     1
 40
30.0
176
     1
 62
     7
420
 16777215
176
     1
 90
        2
176
     1
 90
        2
176
     1
 62
     7
176
     1
 62
     7
176
     1
 90
        1
176
     1
 90
        1
176
     1
 40
40.0
176
     1
 90
       11
176
     1
 62
     7
176
     1
 40
1.0
176
     1
 90
        1
176
     1
 90
        6
176
     1
 90
        2
176
     1
 62
     7
176
     1
 90
        6
176
     1
 90
        0
176
     1
 90
        0
176
     1
290
     0
176
     1
 90
        1
176
     1
 40
0.0
176
     1
 90
        0
176
     1
290
     0
176
     1
290
     1
176
     1
290
     1
176
     1
290
     0
176
     1
290
     0
176
     1
290
     0
176
     1
290
     0
176
     1
290
     0
176
     1
290
     0
176
     1
 90
       50
176
     1
 40
0.0
176
     1
 40
1.0
176
     1
 90
        0
176
     1
 62
    18
420
        0
176
     1
 90
       50
176
     1
 90
        3
176
     1
 62
     5
420
      255
176
     1
290
     0
176
     1
 90
       50
176
     1
 90
       50
176
     1
 90
       50
176
     1
290
     0
176
     1
 90
       50
176
     1
 62
   256
176
     0
 40
1.0
176
     0
 90
        2
176
     1
  1
strokes_ogs.tif
176
     1
290
     0
176
     1
 40
1.0
176
     1
 40
1.0
176
     1
  0
VISUALSTYLE
  5
36
102
{ACAD_REACTORS
330
29
102
}
330
29
100
AcDbVisualStyle
  2
Thicken
 70
    13
177
     3
291
     1
 70
    58
 90
        2
176
     1
 90
        2
176
     1
 90
        0
176
     1
 90
        0
176
     1
 40
0.6
176
     1
 40
30.0
176
     1
 62
     7
420
 16777215
176
     1
 90
        1
176
     1
 90
        4
176
     1
 62
     7
176
     1
 62
   257
176
     1
 90
        1
176
     1
 90
        1
176
     1
 40
1.0
176
     1
 90
       12
176
     1
 62
     7
176
     1
 40
1.0
176
     1
 90
        1
176
     1
 90
        6
176
     1
 90
        2
176
     1
 62
     7
176
     1
 90
        5
176
     1
 90
        0
176
     1
 90
        0
176
     1
290
     0
176
     1
 90
        1
176
     1
 40
0.0
176
     1
 90
        0
176
     1
290
     0
176
     1
290
     1
176
     1
290
     1
176
     1
290
     0
176
     1
290
     0
176
     1
290
     0
176
     1
290
     0
176
     1
290
     0
176
     1
290
     0
176
     1
 90
       50
176
     1
 40
0.0
176
     1
 40
1.0
176
     1
 90
        0
176
     1
 62
    18
420
        0
176
     1
 90
       50
176
     1
 90
        3
176
     1
 62
     5
420
      255
176
     1
290
     0
176
     1
 90
       50
176
     1
 90
       50
176
     1
 90
       50
176
     1
290
     0
176
     1
 90
       50
176
     1
 62
   256
176
     0
 40
1.0
176
     0
 90
        2
176
     1
  1
strokes_ogs.tif
176
     1
290
     0
176
     1
 40
1.0
176
     1
 40
1.0
176
     1
  0
VISUALSTYLE
  5
30
102
{ACAD_REACTORS
330
29
102
}
330
29
100
AcDbVisualStyle
  2
Wireframe
 70
     5
177
     3
291
     0
 70
    58
 90
        0
176
     1
 90
        2
176
     1
 90
        0
176
     1
 90
        0
176
     1
 40
0.6
176
     1
 40
30.0
176
     1
 62
     7
420
 16777215
176
     1
 90
        1
176
     1
 90
        4
176
     1
 62
     7
176
     1
 62
   257
176
     1
 90
        1
176
     1
 90
        1
176
     1
 40
1.0
176
     1
 90
        0
176
     1
 62
   257
176
     1
 40
1.0
176
     1
 90
        1
176
     1
 90
        6
176
     1
 90
        2
176
     1
 62
     7
176
     1
 90
        3
176
     1
 90
        0
176
     1
 90
        0
176
     1
290
     0
176
     1
 90
        1
176
     1
 40
0.0
176
     1
 90
        0
176
     1
290
     0
176
     1
290
     1
176
     1
290
     1
176
     1
290
     0
176
     1
290
     0
176
     1
290
     0
176
     1
290
     0
176
     1
290
     0
176
     1
290
     0
176
     1
 90
       50
176
     1
 40
0.0
176
     1
 40
1.0
176
     1
 90
        0
176
     1
 62
    18
420
        0
176
     1
 90
       50
176
     1
 90
        3
176
     1
 62
     5
420
      255
176
     1
290
     0
176
     1
 90
       50
176
     1
 90
       50
176
     1
 90
       50
176
     1
290
     0
176
     1
 90
       50
176
     1
 62
   256
176
     0
 40
1.0
176
     0
 90
        2
176
     1
  1
strokes_ogs.tif
176
     1
290
     0
176
     1
 40
1.0
176
     1
 40
1.0
176
     1
  0
VISUALSTYLE
  5
3C
102
{ACAD_REACTORS
330
29
102
}
330
29
100
AcDbVisualStyle
  2
X-Ray
 70
    25
177
     3
291
     0
 70
    58
 90
        2
176
     1
 90
        2
176
     1
 90
        1
176
     1
 90
        1
176
     1
 40
0.5
176
     1
 40
30.0
176
     1
 62
     7
420
 16777215
176
     1
 90
        1
176
     1
 90
        0
176
     1
 62
     7
176
     1
 62
   257
176
     1
 90
        1
176
     1
 90
        1
176
     1
 40
1.0
176
     1
 90
        8
176
     1
 62
     7
176
     1
 40
1.0
176
     1
 90
        1
176
     1
 90
        6
176
     1
 90
        2
176
     1
 62
     7
176
     1
 90
        3
176
     1
 90
        0
176
     1
 90
        0
176
     1
290
     0
176
     1
 90
       13
176
     1
 40
0.0
176
     1
 90
        0
176
     1
290
     0
176
     1
290
     1
176
     1
290
     1
176
     1
290
     0
176
     1
290
     0
176
     1
290
     0
176
     1
290
     0
176
     1
290
     0
176
     1
290
     0
176
     1
 90
       50
176
     1
 40
0.0
176
     1
 40
1.0
176
     1
 90
        0
176
     1
 62
    18
420
        0
176
     1
 90
       50
176
     1
 90
        3
176
     1
 62
     5
420
      255
176
     1
290
     0
176
     1
 90
       50
176
     1
 90
       50
176
     1
 90
       50
176
     1
290
     0
176
     1
 90
       50
176
     1
 62
   256
176
     0
 40
1.0
176
     0
 90
        2
176
     1
  1
strokes_ogs.tif
176
     1
290
     0
176
     1
 40
1.0
176
     1
 40
1.0
176
     1
  0
DICTIONARYVAR
  5
F0
102
{ACAD_REACTORS
330
EB
102
}
330
EB
100
DictionaryVariables
280
     0
  1
1:1
  0
DICTIONARYVAR
  5
ED
102
{ACAD_REACTORS
330
EB
102
}
330
EB
100
DictionaryVariables
280
     0
  1
STANDARD
  0
DICTIONARYVAR
  5
EC
102
{ACAD_REACTORS
330
EB
102
}
330
EB
100
DictionaryVariables
280
     0
  1
STANDARD
  0
DICTIONARYVAR
  5
EE
102
{ACAD_REACTORS
330
EB
102
}
330
EB
100
DictionaryVariables
280
     0
  1
Imperial24
  0
DICTIONARYVAR
  5
EF
102
{ACAD_REACTORS
330
EB
102
}
330
EB
100
DictionaryVariables
280
     0
  1
Imperial24
  0
DICTIONARY
  5
1A
330
19
100
AcDbDictionary
280
     1
281
     1
  3
BUMPTILE
360
1C
  3
DIFFUSETILE
360
1B
  3
OPACITYTILE
360
1F
  3
REFLECTIONTILE
360
1E
  3
REFRACTIONTILE
360
20
  3
SPECULARTILE
360
1D
  0
DICTIONARY
  5
12
330
11
100
AcDbDictionary
280
     1
281
     1
  3
BUMPTILE
360
14
  3
DIFFUSETILE
360
13
  3
OPACITYTILE
360
17
  3
REFLECTIONTILE
360
16
  3
REFRACTIONTILE
360
18
  3
SPECULARTILE
360
15
  0
DICTIONARY
  5
22
330
21
100
AcDbDictionary
280
     1
281
     1
  3
BUMPTILE
360
24
  3
DIFFUSETILE
360
23
  3
OPACITYTILE
360
27
  3
REFLECTIONTILE
360
26
  3
REFRACTIONTILE
360
28
  3
SPECULARTILE
360
25
  0
DICTIONARY
  5
F1
330
65
100
AcDbDictionary
280
     1
281
     1
  3
ACAD_ROUNDTRIP_2008_TABLESTYLE_CELLSTYLEMAP
360
F2
  0
XRECORD
  5
1C
102
{ACAD_REACTORS
330
1A
102
}
330
1A
100
AcDbXrecord
280
     1
270
     1
271
     1
  0
XRECORD
  5
1B
102
{ACAD_REACTORS
330
1A
102
}
330
1A
100
AcDbXrecord
280
     1
270
     1
271
     1
  0
XRECORD
  5
1F
102
{ACAD_REACTORS
330
1A
102
}
330
1A
100
AcDbXrecord
280
     1
270
     1
271
     1
  0
XRECORD
  5
1E
102
{ACAD_REACTORS
330
1A
102
}
330
1A
100
AcDbXrecord
280
     1
270
     1
271
     1
  0
XRECORD
  5
20
102
{ACAD_REACTORS
330
1A
102
}
330
1A
100
AcDbXrecord
280
     1
270
     1
271
     1
  0
XRECORD
  5
1D
102
{ACAD_REACTORS
330
1A
102
}
330
1A
100
AcDbXrecord
280
     1
270
     1
271
     1
  0
XRECORD
  5
14
102
{ACAD_REACTORS
330
12
102
}
330
12
100
AcDbXrecord
280
     1
270
     1
271
     1
  0
XRECORD
  5
13
102
{ACAD_REACTORS
330
12
102
}
330
12
100
AcDbXrecord
280
     1
270
     1
271
     1
  0
XRECORD
  5
17
102
{ACAD_REACTORS
330
12
102
}
330
12
100
AcDbXrecord
280
     1
270
     1
271
     1
  0
XRECORD
  5
16
102
{ACAD_REACTORS
330
12
102
}
330
12
100
AcDbXrecord
280
     1
270
     1
271
     1
  0
XRECORD
  5
18
102
{ACAD_REACTORS
330
12
102
}
330
12
100
AcDbXrecord
280
     1
270
     1
271
     1
  0
XRECORD
  5
15
102
{ACAD_REACTORS
330
12
102
}
330
12
100
AcDbXrecord
280
     1
270
     1
271
     1
  0
XRECORD
  5
24
102
{ACAD_REACTORS
330
22
102
}
330
22
100
AcDbXrecord
280
     1
270
     1
271
     1
  0
XRECORD
  5
23
102
{ACAD_REACTORS
330
22
102
}
330
22
100
AcDbXrecord
280
     1
270
     1
271
     1
  0
XRECORD
  5
27
102
{ACAD_REACTORS
330
22
102
}
330
22
100
AcDbXrecord
280
     1
270
     1
271
     1
  0
XRECORD
  5
26
102
{ACAD_REACTORS
330
22
102
}
330
22
100
AcDbXrecord
280
     1
270
     1
271
     1
  0
XRECORD
  5
28
102
{ACAD_REACTORS
330
22
102
}
330
22
100
AcDbXrecord
280
     1
270
     1
271
     1
  0
XRECORD
  5
25
102
{ACAD_REACTORS
330
22
102
}
330
22
100
AcDbXrecord
280
     1
270
     1
271
     1
  0
CELLSTYLEMAP
  5
F2
102
{ACAD_REACTORS
330
F1
102
}
330
F1
100
AcDbCellStyleMap
 90
        3
300
CELLSTYLE
  1
TABLEFORMAT_BEGIN
 90
        5
170
     1
 91
        0
 92
    32768
 62
   257
 93
        1
300
CONTENTFORMAT
  1
CONTENTFORMAT_BEGIN
 90
        0
 91
        0
 92
      512
 93
        0
300

 40
0.0
140
1.0
 94
        5
 62
     0
340
55
144
0.25
309
CONTENTFORMAT_END
171
     0
 94
        0
309
TABLEFORMAT_END
  1
CELLSTYLE_BEGIN
 90
        1
 91
        1
300
_TITLE
309
CELLSTYLE_END
300
CELLSTYLE
  1
TABLEFORMAT_BEGIN
 90
        5
170
     1
 91
        0
 92
        0
 62
   257
 93
        1
300
CONTENTFORMAT
  1
CONTENTFORMAT_BEGIN
 90
        0
 91
        0
 92
      512
 93
        0
300

 40
0.0
140
1.0
 94
        5
 62
     0
340
55
144
0.18
309
CONTENTFORMAT_END
171
     0
 94
        0
309
TABLEFORMAT_END
  1
CELLSTYLE_BEGIN
 90
        2
 91
        1
300
_HEADER
309
CELLSTYLE_END
300
CELLSTYLE
  1
TABLEFORMAT_BEGIN
 90
        5
170
     1
 91
        0
 92
        0
 62
   257
 93
        1
300
CONTENTFORMAT
  1
CONTENTFORMAT_BEGIN
 90
        0
 91
        0
 92
      512
 93
        0
300

 40
0.0
140
1.0
 94
        2
 62
     0
340
55
144
0.18
309
CONTENTFORMAT_END
171
     0
 94
        0
309
TABLEFORMAT_END
  1
CELLSTYLE_BEGIN
 90
        3
 91
        2
300
_DATA
309
CELLSTYLE_END
  0
ENDSEC
  0
EOF
