  0
SECTION
  2
HEADER
  9
$ACADVER
  1
AC1032
  9
$ACADMAINTVER
 90
      251
  9
$DWGCODEPAGE
  3
ANSI_932
  9
$REQUIREDVERSIONS
160
                 0
  9
$INSBASE
 10
0.0
 20
0.0
 30
0.0
  9
$EXTMIN
 10
1.000000000000000E+20
 20
1.000000000000000E+20
 30
1.000000000000000E+20
  9
$EXTMAX
 10
-1.000000000000000E+20
 20
-1.000000000000000E+20
 30
-1.000000000000000E+20
  9
$LIMMIN
 10
0.0
 20
0.0
  9
$LIMMAX
 10
12.0
 20
9.0
  9
$ORTHOMODE
 70
     0
  9
$REGENMODE
 70
     1
  9
$FILLMODE
 70
     1
  9
$QTEXTMODE
 70
     0
  9
$MIRRTEXT
 70
     0
  9
$LTSCALE
 40
1.0
  9
$ATTMODE
 70
     1
  9
$TEXTSIZE
 40
0.2
  9
$TRACEWID
 40
0.05
  9
$TEXTSTYLE
  7
Standard
  9
$CLAYER
  8
0
  9
$CELTYPE
  6
ByLayer
  9
$CECOLOR
 62
   256
  9
$CELTSCALE
 40
1.0
  9
$DISPSILH
 70
     0
  9
$DIMSCALE
 40
1.0
  9
$DIMASZ
 40
0.18
  9
$DIMEXO
 40
0.0625
  9
$DIMDLI
 40
0.38
  9
$DIMRND
 40
0.0
  9
$DIMDLE
 40
0.0
  9
$DIMEXE
 40
0.18
  9
$DIMTP
 40
0.0
  9
$DIMTM
 40
0.0
  9
$DIMTXT
 40
0.18
  9
$DIMCEN
 40
0.09
  9
$DIMTSZ
 40
0.0
  9
$DIMTOL
 70
     0
  9
$DIMLIM
 70
     0
  9
$DIMTIH
 70
     1
  9
$DIMTOH
 70
     1
  9
$DIMSE1
 70
     0
  9
$DIMSE2
 70
     0
  9
$DIMTAD
 70
     0
  9
$DIMZIN
 70
     0
  9
$DIMBLK
  1

  9
$DIMASO
 70
     1
  9
$DIMSHO
 70
     1
  9
$DIMPOST
  1

  9
$DIMAPOST
  1

  9
$DIMALT
 70
     0
  9
$DIMALTD
 70
     2
  9
$DIMALTF
 40
25.4
  9
$DIMLFAC
 40
1.0
  9
$DIMTOFL
 70
     0
  9
$DIMTVP
 40
0.0
  9
$DIMTIX
 70
     0
  9
$DIMSOXD
 70
     0
  9
$DIMSAH
 70
     0
  9
$DIMBLK1
  1

  9
$DIMBLK2
  1

  9
$DIMSTYLE
  2
Standard
  9
$DIMCLRD
 70
     0
  9
$DIMCLRE
 70
     0
  9
$DIMCLRT
 70
     0
  9
$DIMTFAC
 40
1.0
  9
$DIMGAP
 40
0.09
  9
$DIMJUST
 70
     0
  9
$DIMSD1
 70
     0
  9
$DIMSD2
 70
     0
  9
$DIMTOLJ
 70
     1
  9
$DIMTZIN
 70
     0
  9
$DIMALTZ
 70
     0
  9
$DIMALTTZ
 70
     0
  9
$DIMUPT
 70
     0
  9
$DIMDEC
 70
     4
  9
$DIMTDEC
 70
     4
  9
$DIMALTU
 70
     2
  9
$DIMALTTD
 70
     2
  9
$DIMTXSTY
  7
Standard
  9
$DIMAUNIT
 70
     0
  9
$DIMADEC
 70
     0
  9
$DIMALTRND
 40
0.0
  9
$DIMAZIN
 70
     0
  9
$DIMDSEP
 70
    46
  9
$DIMATFIT
 70
     3
  9
$DIMFRAC
 70
     0
  9
$DIMLDRBLK
  1

  9
$DIMLUNIT
 70
     2
  9
$DIMLWD
 70
    -2
  9
$DIMLWE
 70
    -2
  9
$DIMTMOVE
 70
     0
  9
$DIMFXL
 40
1.0
  9
$DIMFXLON
 70
     0
  9
$DIMJOGANG
 40
0.7853981633974483
  9
$DIMTFILL
 70
     0
  9
$DIMTFILLCLR
 70
     0
  9
$DIMARCSYM
 70
     0
  9
$DIMLTYPE
  6

  9
$DIMLTEX1
  6

  9
$DIMLTEX2
  6

  9
$DIMTXTDIRECTION
 70
     0
  9
$LUNITS
 70
     2
  9
$LUPREC
 70
     4
  9
$SKETCHINC
 40
0.1
  9
$FILLETRAD
 40
0.0
  9
$AUNITS
 70
     0
  9
$AUPREC
 70
     0
  9
$MENU
  1
.
  9
$ELEVATION
 40
0.0
  9
$PELEVATION
 40
0.0
  9
$THICKNESS
 40
0.0
  9
$LIMCHECK
 70
     0
  9
$CHAMFERA
 40
0.0
  9
$CHAMFERB
 40
0.0
  9
$CHAMFERC
 40
0.0
  9
$CHAMFERD
 40
0.0
  9
$SKPOLY
 70
     0
  9
$TDCREATE
 40
2460328.651331018
  9
$TDUCREATE
 40
2460328.276331019
  9
$TDUPDATE
 40
2460328.651331018
  9
$TDUUPDATE
 40
2460328.276331019
  9
$TDINDWG
 40
0.0000000000
  9
$TDUSRTIMER
 40
0.0000000000
  9
$USRTIMER
 70
     1
  9
$ANGBASE
 50
0.0
  9
$ANGDIR
 70
     0
  9
$PDMODE
 70
     0
  9
$PDSIZE
 40
0.0
  9
$PLINEWID
 40
0.0
  9
$SPLFRAME
 70
     0
  9
$SPLINETYPE
 70
     6
  9
$SPLINESEGS
 70
     8
  9
$HANDSEED
  5
109
  9
$SURFTAB1
 70
     6
  9
$SURFTAB2
 70
     6
  9
$SURFTYPE
 70
     6
  9
$SURFU
 70
     6
  9
$SURFV
 70
     6
  9
$UCSBASE
  2

  9
$UCSNAME
  2

  9
$UCSORG
 10
0.0
 20
0.0
 30
0.0
  9
$UCSXDIR
 10
1.0
 20
0.0
 30
0.0
  9
$UCSYDIR
 10
0.0
 20
1.0
 30
0.0
  9
$UCSORTHOREF
  2

  9
$UCSORTHOVIEW
 70
     0
  9
$UCSORGTOP
 10
0.0
 20
0.0
 30
0.0
  9
$UCSORGBOTTOM
 10
0.0
 20
0.0
 30
0.0
  9
$UCSORGLEFT
 10
0.0
 20
0.0
 30
0.0
  9
$UCSORGRIGHT
 10
0.0
 20
0.0
 30
0.0
  9
$UCSORGFRONT
 10
0.0
 20
0.0
 30
0.0
  9
$UCSORGBACK
 10
0.0
 20
0.0
 30
0.0
  9
$PUCSBASE
  2

  9
$PUCSNAME
  2

  9
$PUCSORG
 10
0.0
 20
0.0
 30
0.0
  9
$PUCSXDIR
 10
1.0
 20
0.0
 30
0.0
  9
$PUCSYDIR
 10
0.0
 20
1.0
 30
0.0
  9
$PUCSORTHOREF
  2

  9
$PUCSORTHOVIEW
 70
     0
  9
$PUCSORGTOP
 10
0.0
 20
0.0
 30
0.0
  9
$PUCSORGBOTTOM
 10
0.0
 20
0.0
 30
0.0
  9
$PUCSORGLEFT
 10
0.0
 20
0.0
 30
0.0
  9
$PUCSORGRIGHT
 10
0.0
 20
0.0
 30
0.0
  9
$PUCSORGFRONT
 10
0.0
 20
0.0
 30
0.0
  9
$PUCSORGBACK
 10
0.0
 20
0.0
 30
0.0
  9
$USERI1
 70
     0
  9
$USERI2
 70
     0
  9
$USERI3
 70
     0
  9
$USERI4
 70
     0
  9
$USERI5
 70
     0
  9
$USERR1
 40
0.0
  9
$USERR2
 40
0.0
  9
$USERR3
 40
0.0
  9
$USERR4
 40
0.0
  9
$USERR5
 40
0.0
  9
$WORLDVIEW
 70
     1
  9
$SHADEDGE
 70
     3
  9
$SHADEDIF
 70
    70
  9
$TILEMODE
 70
     1
  9
$MAXACTVP
 70
    64
  9
$PINSBASE
 10
0.0
 20
0.0
 30
0.0
  9
$PLIMCHECK
 70
     0
  9
$PEXTMIN
 10
1.000000000000000E+20
 20
1.000000000000000E+20
 30
1.000000000000000E+20
  9
$PEXTMAX
 10
-1.000000000000000E+20
 20
-1.000000000000000E+20
 30
-1.000000000000000E+20
  9
$PLIMMIN
 10
0.0
 20
0.0
  9
$PLIMMAX
 10
12.0
 20
9.0
  9
$UNITMODE
 70
     0
  9
$VISRETAIN
 70
     1
  9
$PLINEGEN
 70
     0
  9
$PSLTSCALE
 70
     1
  9
$TREEDEPTH
 70
  3020
  9
$CMLSTYLE
  2
Standard
  9
$CMLJUST
 70
     0
  9
$CMLSCALE
 40
1.0
  9
$PROXYGRAPHICS
 70
     1
  9
$MEASUREMENT
 70
     0
  9
$CELWEIGHT
370
    -1
  9
$ENDCAPS
280
     0
  9
$JOINSTYLE
280
     0
  9
$LWDISPLAY
290
     1
  9
$INSUNITS
 70
     4
  9
$HYPERLINKBASE
  1

  9
$STYLESHEET
  1

  9
$XEDIT
290
     1
  9
$CEPSNTYPE
380
     0
  9
$PSTYLEMODE
290
     1
  9
$FINGERPRINTGUID
  2
{E1A0A6E6-8FAE-1F4D-9BE8-E9AADAA03709}
  9
$VERSIONGUID
  2
{37B5F7C3-C196-B54A-8470-F49D38FD604F}
  9
$EXTNAMES
290
     1
  9
$PSVPSCALE
 40
0.0
  9
$OLESTARTUP
290
     0
  9
$SORTENTS
280
   127
  9
$INDEXCTL
280
     0
  9
$HIDETEXT
280
     1
  9
$XCLIPFRAME
280
     2
  9
$HALOGAP
280
     0
  9
$OBSCOLOR
 70
   257
  9
$OBSLTYPE
280
     0
  9
$INTERSECTIONDISPLAY
280
     0
  9
$INTERSECTIONCOLOR
 70
   257
  9
$DIMASSOC
280
     2
  9
$PROJECTNAME
  1

  9
$CAMERADISPLAY
290
     0
  9
$LENSLENGTH
 40
50.0
  9
$CAMERAHEIGHT
 40
0.0
  9
$STEPSPERSEC
 40
2.0
  9
$STEPSIZE
 40
6.0
  9
$3DDWFPREC
 40
2.0
  9
$PSOLWIDTH
 40
0.25
  9
$PSOLHEIGHT
 40
4.0
  9
$LOFTANG1
 40
1.570796326794896
  9
$LOFTANG2
 40
1.570796326794896
  9
$LOFTMAG1
 40
0.0
  9
$LOFTMAG2
 40
0.0
  9
$LOFTPARAM
 70
     7
  9
$LOFTNORMALS
280
     1
  9
$LATITUDE
 40
37.795
  9
$LONGITUDE
 40
-122.394
  9
$NORTHDIRECTION
 40
0.0
  9
$TIMEZONE
 70
 -8000
  9
$LIGHTGLYPHDISPLAY
280
     1
  9
$TILEMODELIGHTSYNCH
280
     1
  9
$CMATERIAL
347
11
  9
$SOLIDHIST
280
     0
  9
$SHOWHIST
280
     1
  9
$DWFFRAME
280
     2
  9
$DGNFRAME
280
     0
  9
$REALWORLDSCALE
290
     1
  9
$INTERFERECOLOR
 62
     1
  9
$INTERFEREOBJVS
345
33
  9
$INTERFEREVPVS
346
30
  9
$CSHADOW
280
     0
  9
$SHADOWPLANELOCATION
 40
0.0
  0
ENDSEC
  0
SECTION
  2
CLASSES
  0
CLASS
  1
ACDBDICTIONARYWDFLT
  2
AcDbDictionaryWithDefault
  3
ObjectDBX Classes
 90
        0
 91
        1
280
     0
281
     0
  0
CLASS
  1
MATERIAL
  2
AcDbMaterial
  3
ObjectDBX Classes
 90
     1153
 91
        3
280
     0
281
     0
  0
CLASS
  1
VISUALSTYLE
  2
AcDbVisualStyle
  3
ObjectDBX Classes
 90
     4095
 91
       24
280
     0
281
     0
  0
CLASS
  1
SCALE
  2
AcDbScale
  3
ObjectDBX Classes
 90
     1153
 91
       17
280
     0
281
     0
  0
CLASS
  1
TABLESTYLE
  2
AcDbTableStyle
  3
ObjectDBX Classes
 90
     4095
 91
        1
280
     0
281
     0
  0
CLASS
  1
MLEADERSTYLE
  2
AcDbMLeaderStyle
  3
ACDB_MLEADERSTYLE_CLASS
 90
     4095
 91
        1
280
     0
281
     0
  0
CLASS
  1
ACDBSECTIONVIEWSTYLE
  2
AcDbSectionViewStyle
  3
ObjectDBX Classes
 90
     1025
 91
        1
280
     0
281
     0
  0
CLASS
  1
ACDBDETAILVIEWSTYLE
  2
AcDbDetailViewStyle
  3
ObjectDBX Classes
 90
     1025
 91
        1
280
     0
281
     0
  0
CLASS
  1
DICTIONARYVAR
  2
AcDbDictionaryVar
  3
ObjectDBX Classes
 90
        0
 91
        5
280
     0
281
     0
  0
CLASS
  1
CELLSTYLEMAP
  2
AcDbCellStyleMap
  3
ObjectDBX Classes
 90
     1152
 91
        1
280
     0
281
     0
  0
ENDSEC
  0
SECTION
  2
TABLES
  0
TABLE
  2
VPORT
  5
8
330
0
100
AcDbSymbolTable
 70
     1
  0
VPORT
  5
57
330
8
100
AcDbSymbolTableRecord
100
AcDbViewportTableRecord
  2
*Active
 70
     0
 10
0.0
 20
0.0
 11
1.0
 21
1.0
 12
0.0
 22
0.0
 13
0.0
 23
0.0
 14
1.0
 24
1.0
 15
0.0
 25
0.0
 16
0.0
 26
0.0
 36
1.0
 17
49.99999998749986
 27
-49.99999998749986
 37
0.0
 40
101.9999999744997
 41
1.0
 42
50.0
 43
0.0
 44
0.0
 50
0.0
 51
0.0
 71
     0
 72
   100
 73
     1
 74
     1
 75
     0
 76
     0
 77
     0
 78
     0
281
     0
 65
     1
110
0.0
120
0.0
130
0.0
111
1.0
121
0.0
131
0.0
112
0.0
122
1.0
132
0.0
 79
     0
146
0.0
 60
     3
 61
     5
292
     1
282
     1
141
0.0
142
0.0
 63
   250
421
  3355443
  0
ENDTAB
  0
TABLE
  2
LTYPE
  5
5
330
0
100
AcDbSymbolTable
 70
     1
  0
LTYPE
  5
5B
330
5
100
AcDbSymbolTableRecord
100
AcDbLinetypeTableRecord
  2
ByBlock
 70
     0
  3

 72
    65
 73
     0
 40
0.0
  0
LTYPE
  5
5C
330
5
100
AcDbSymbolTableRecord
100
AcDbLinetypeTableRecord
  2
ByLayer
 70
     0
  3

 72
    65
 73
     0
 40
0.0
  0
LTYPE
  5
5D
330
5
100
AcDbSymbolTableRecord
100
AcDbLinetypeTableRecord
  2
Continuous
 70
     0
  3
Solid line
 72
    65
 73
     0
 40
0.0
  0
ENDTAB
  0
TABLE
  2
LAYER
  5
2
330
0
100
AcDbSymbolTable
 70
     2
  0
LAYER
  5
54
330
2
100
AcDbSymbolTableRecord
100
AcDbLayerTableRecord
  2
0
 70
     0
 62
     7
  6
Continuous
370
    -3
390
F
347
21
348
0
  0
LAYER
  5
78
330
2
100
AcDbSymbolTableRecord
100
AcDbLayerTableRecord
  2
レイヤー 1
 70
     0
 62
     7
  6
Continuous
370
     0
390
F
347
21
348
0
  0
ENDTAB
  0
TABLE
  2
STYLE
  5
3
330
0
100
AcDbSymbolTable
 70
     2
  0
STYLE
  5
55
330
3
100
AcDbSymbolTableRecord
100
AcDbTextStyleTableRecord
  2
Standard
 70
     0
 40
0.0
 41
1.0
 50
0.0
 71
     0
 42
0.2
  3
txt
  4

  0
STYLE
  5
5A
330
3
100
AcDbSymbolTableRecord
100
AcDbTextStyleTableRecord
  2
Annotative
 70
     0
 40
0.0
 41
1.0
 50
0.0
 71
     0
 42
0.2
  3
txt
  4

1001
AcadAnnotative
1000
AnnotativeData
1002
{
1070
     1
1070
     1
1002
}
  0
ENDTAB
  0
TABLE
  2
VIEW
  5
6
330
0
100
AcDbSymbolTable
 70
     0
  0
ENDTAB
  0
TABLE
  2
UCS
  5
7
330
0
100
AcDbSymbolTable
 70
     0
  0
ENDTAB
  0
TABLE
  2
APPID
  5
9
330
0
100
AcDbSymbolTable
 70
     2
  0
APPID
  5
56
330
9
100
AcDbSymbolTableRecord
100
AcDbRegAppTableRecord
  2
ACAD
 70
     0
  0
APPID
  5
5E
330
9
100
AcDbSymbolTableRecord
100
AcDbRegAppTableRecord
  2
AcadAnnotative
 70
     0
  0
ENDTAB
  0
TABLE
  2
DIMSTYLE
  5
A
330
0
100
AcDbSymbolTable
 70
     2
100
AcDbDimStyleTable
 71
     0
  0
DIMSTYLE
105
58
330
A
100
AcDbSymbolTableRecord
100
AcDbDimStyleTableRecord
  2
Standard
 70
     0
340
55
  0
DIMSTYLE
105
59
330
A
100
AcDbSymbolTableRecord
100
AcDbDimStyleTableRecord
  2
Annotative
 70
     0
340
55
1001
AcadAnnotative
1000
AnnotativeData
1002
{
1070
     1
1070
     1
1002
}
  0
ENDTAB
  0
TABLE
  2
BLOCK_RECORD
  5
1
330
0
100
AcDbSymbolTable
 70
     8
  0
BLOCK_RECORD
  5
70
330
1
100
AcDbSymbolTableRecord
100
AcDbBlockTableRecord
  2
*Model_Space
340
73
 70
     0
280
     1
281
     0
  0
BLOCK_RECORD
  5
6C
330
1
100
AcDbSymbolTableRecord
100
AcDbBlockTableRecord
  2
*Paper_Space
340
6F
 70
     0
280
     1
281
     0
  0
BLOCK_RECORD
  5
74
330
1
100
AcDbSymbolTableRecord
100
AcDbBlockTableRecord
  2
*Paper_Space0
340
77
 70
     0
280
     1
281
     0
  0
BLOCK_RECORD
  5
79
330
1
100
AcDbSymbolTableRecord
100
AcDbBlockTableRecord
  2
Block_0
340
0
102
{BLKREFS
331
7A
102
}
 70
     0
280
     1
281
     0
  0
BLOCK_RECORD
  5
7D
330
1
100
AcDbSymbolTableRecord
100
AcDbBlockTableRecord
  2
Block_1
340
0
102
{BLKREFS
331
7E
102
}
 70
     0
280
     1
281
     0
  0
BLOCK_RECORD
  5
D4
330
1
100
AcDbSymbolTableRecord
100
AcDbBlockTableRecord
  2
Block_2
340
0
102
{BLKREFS
331
D5
102
}
 70
     0
280
     1
281
     0
  0
BLOCK_RECORD
  5
D8
330
1
100
AcDbSymbolTableRecord
100
AcDbBlockTableRecord
  2
Block_3
340
0
102
{BLKREFS
331
D9
102
}
 70
     0
280
     1
281
     0
  0
BLOCK_RECORD
  5
E7
330
1
100
AcDbSymbolTableRecord
100
AcDbBlockTableRecord
  2
Block_4
340
0
102
{BLKREFS
331
E8
102
}
 70
     0
280
     1
281
     0
  0
BLOCK_RECORD
  5
EB
330
1
100
AcDbSymbolTableRecord
100
AcDbBlockTableRecord
  2
Block_5
340
0
102
{BLKREFS
331
EC
102
}
 70
     0
280
     1
281
     0
  0
BLOCK_RECORD
  5
F8
330
1
100
AcDbSymbolTableRecord
100
AcDbBlockTableRecord
  2
Block_6
340
0
102
{BLKREFS
331
F9
102
}
 70
     0
280
     1
281
     0
  0
ENDTAB
  0
ENDSEC
  0
SECTION
  2
BLOCKS
  0
BLOCK
  5
71
330
70
100
AcDbEntity
  8
0
100
AcDbBlockBegin
  2
*Model_Space
 70
     0
 10
0.0
 20
0.0
 30
0.0
  3
*Model_Space
  1

  0
ENDBLK
  5
72
330
70
100
AcDbEntity
  8
0
100
AcDbBlockEnd
  0
BLOCK
  5
6D
330
6C
100
AcDbEntity
 67
     1
  8
0
100
AcDbBlockBegin
  2
*Paper_Space
 70
     0
 10
0.0
 20
0.0
 30
0.0
  3
*Paper_Space
  1

  0
ENDBLK
  5
6E
330
6C
100
AcDbEntity
 67
     1
  8
0
100
AcDbBlockEnd
  0
BLOCK
  5
75
330
74
100
AcDbEntity
 67
     1
  8
0
100
AcDbBlockBegin
  2
*Paper_Space0
 70
     0
 10
0.0
 20
0.0
 30
0.0
  3
*Paper_Space0
  1

  0
ENDBLK
  5
76
330
74
100
AcDbEntity
 67
     1
  8
0
100
AcDbBlockEnd
  0
BLOCK
  5
7B
330
79
100
AcDbEntity
  8
0
100
AcDbBlockBegin
  2
Block_0
 70
     0
 10
0.0
 20
0.0
 30
0.0
  3
Block_0
  1

  0
INSERT
  5
7E
330
79
100
AcDbEntity
  8
レイヤー 1
100
AcDbBlockReference
  2
Block_1
 10
0.0
 20
0.0
 30
0.0
  0
ENDBLK
  5
7C
330
79
100
AcDbEntity
  8
0
100
AcDbBlockEnd
  0
BLOCK
  5
7F
330
7D
100
AcDbEntity
  8
0
100
AcDbBlockBegin
  2
Block_1
 70
     0
 10
0.0
 20
0.0
 30
0.0
  3
Block_1
  1

  0
SPLINE
  5
81
330
7D
100
AcDbEntity
  8
レイヤー 1
100
AcDbSpline
210
0.0
220
0.0
230
1.0
 70
    11
 71
     3
 72
    23
 73
    19
 74
     0
 42
0.0000000001
 43
0.0000000001
 40
0.0
 40
0.0
 40
0.0
 40
0.0
 40
1.0
 40
1.0
 40
1.0
 40
2.0
 40
2.0
 40
2.0
 40
3.0
 40
3.0
 40
3.0
 40
4.0
 40
4.0
 40
4.0
 40
5.0
 40
5.0
 40
5.0
 40
6.0
 40
6.0
 40
6.0
 40
6.0
 10
2.992582193262271
 20
-2.431031629166547
 30
0.0
 10
2.992582193262271
 20
-2.431031629166547
 30
0.0
 10
3.157946776554263
 20
-2.431031629166547
 30
0.0
 10
3.157946776554263
 20
-2.431031629166547
 30
0.0
 10
3.157946776554263
 20
-2.431031629166547
 30
0.0
 10
3.157946776554263
 20
-4.219725205108263
 30
0.0
 10
3.157946776554263
 20
-4.219725205108263
 30
0.0
 10
3.157946776554263
 20
-4.219725205108263
 30
0.0
 10
3.932921005961214
 20
-4.219725205108263
 30
0.0
 10
3.932921005961214
 20
-4.219725205108263
 30
0.0
 10
3.932921005961214
 20
-4.219725205108263
 30
0.0
 10
3.905877006402003
 20
-4.366141763231381
 30
0.0
 10
3.905877006402003
 20
-4.366141763231381
 30
0.0
 10
3.905877006402003
 20
-4.366141763231381
 30
0.0
 10
2.992582193262271
 20
-4.366141763231381
 30
0.0
 10
2.992582193262271
 20
-4.366141763231381
 30
0.0
 10
2.992582193262271
 20
-4.366141763231381
 30
0.0
 10
2.992582193262271
 20
-2.431031629166547
 30
0.0
 10
2.992582193262271
 20
-2.431031629166547
 30
0.0
  0
HATCH
  5
82
330
7D
100
AcDbEntity
  8
レイヤー 1
 62
   250
420
  4078137
440
 33554687
100
AcDbHatch
 10
0.0
 20
0.0
 30
0.0
210
0.0
220
0.0
230
1.0
  2
SOLID
 70
     1
 71
     1
 91
        1
 92
        1
 93
        1
 72
     4
 94
        3
 73
     0
 74
     0
 95
       23
 96
       19
 40
0.0
 40
0.0
 40
0.0
 40
0.0
 40
1.0
 40
1.0
 40
1.0
 40
2.0
 40
2.0
 40
2.0
 40
3.0
 40
3.0
 40
3.0
 40
4.0
 40
4.0
 40
4.0
 40
5.0
 40
5.0
 40
5.0
 40
6.0
 40
6.0
 40
6.0
 40
6.0
 10
2.992582193262271
 20
-2.431031629166547
 10
2.992582193262271
 20
-2.431031629166547
 10
3.157946776554263
 20
-2.431031629166547
 10
3.157946776554263
 20
-2.431031629166547
 10
3.157946776554263
 20
-2.431031629166547
 10
3.157946776554263
 20
-4.219725205108263
 10
3.157946776554263
 20
-4.219725205108263
 10
3.157946776554263
 20
-4.219725205108263
 10
3.932921005961214
 20
-4.219725205108263
 10
3.932921005961214
 20
-4.219725205108263
 10
3.932921005961214
 20
-4.219725205108263
 10
3.905877006402003
 20
-4.366141763231381
 10
3.905877006402003
 20
-4.366141763231381
 10
3.905877006402003
 20
-4.366141763231381
 10
2.992582193262271
 20
-4.366141763231381
 10
2.992582193262271
 20
-4.366141763231381
 10
2.992582193262271
 20
-4.366141763231381
 10
2.992582193262271
 20
-2.431031629166547
 10
2.992582193262271
 20
-2.431031629166547
 97
        0
 97
        1
330
81
 75
     2
 76
     1
 98
        1
 10
0.0
 20
0.0
450
        0
451
        0
460
0.0
461
0.0
452
        0
462
0.0
453
        0
470

  0
SPLINE
  5
83
330
7D
100
AcDbEntity
  8
レイヤー 1
100
AcDbSpline
210
0.0
220
0.0
230
1.0
 70
    11
 71
     3
 72
    35
 73
    31
 74
     0
 42
0.0000000001
 43
0.0000000001
 40
0.0
 40
0.0
 40
0.0
 40
0.0
 40
1.0
 40
1.0
 40
1.0
 40
2.0
 40
2.0
 40
2.0
 40
3.0
 40
3.0
 40
3.0
 40
4.0
 40
4.0
 40
4.0
 40
5.0
 40
5.0
 40
5.0
 40
6.0
 40
6.0
 40
6.0
 40
7.0
 40
7.0
 40
7.0
 40
8.0
 40
8.0
 40
8.0
 40
9.0
 40
9.0
 40
9.0
 40
10.0
 40
10.0
 40
10.0
 40
10.0
 10
4.179589842705103
 20
-2.431031629166547
 30
0.0
 10
4.179589842705103
 20
-2.431031629166547
 30
0.0
 10
5.082032605066297
 20
-2.431031629166547
 30
0.0
 10
5.082032605066297
 20
-2.431031629166547
 30
0.0
 10
5.082032605066297
 20
-2.431031629166547
 30
0.0
 10
5.082032605066297
 20
-2.577448187289665
 30
0.0
 10
5.082032605066297
 20
-2.577448187289665
 30
0.0
 10
5.082032605066297
 20
-2.577448187289665
 30
0.0
 10
4.344954425997094
 20
-2.577448187289665
 30
0.0
 10
4.344954425997094
 20
-2.577448187289665
 30
0.0
 10
4.344954425997094
 20
-2.577448187289665
 30
0.0
 10
4.344954425997094
 20
-3.317282442747068
 30
0.0
 10
4.344954425997094
 20
-3.317282442747068
 30
0.0
 10
4.344954425997094
 20
-3.317282442747068
 30
0.0
 10
5.036040580338212
 20
-3.317282442747068
 30
0.0
 10
5.036040580338212
 20
-3.317282442747068
 30
0.0
 10
5.036040580338212
 20
-3.317282442747068
 30
0.0
 10
5.036040580338212
 20
-3.463699000870186
 30
0.0
 10
5.036040580338212
 20
-3.463699000870186
 30
0.0
 10
5.036040580338212
 20
-3.463699000870186
 30
0.0
 10
4.344954425997094
 20
-3.463699000870186
 30
0.0
 10
4.344954425997094
 20
-3.463699000870186
 30
0.0
 10
4.344954425997094
 20
-3.463699000870186
 30
0.0
 10
4.344954425997094
 20
-4.366141763231381
 30
0.0
 10
4.344954425997094
 20
-4.366141763231381
 30
0.0
 10
4.344954425997094
 20
-4.366141763231381
 30
0.0
 10
4.179589842705103
 20
-4.366141763231381
 30
0.0
 10
4.179589842705103
 20
-4.366141763231381
 30
0.0
 10
4.179589842705103
 20
-4.366141763231381
 30
0.0
 10
4.179589842705103
 20
-2.431031629166547
 30
0.0
 10
4.179589842705103
 20
-2.431031629166547
 30
0.0
  0
HATCH
  5
84
330
7D
100
AcDbEntity
  8
レイヤー 1
 62
   250
420
  4078137
440
 33554687
100
AcDbHatch
 10
0.0
 20
0.0
 30
0.0
210
0.0
220
0.0
230
1.0
  2
SOLID
 70
     1
 71
     1
 91
        1
 92
        1
 93
        1
 72
     4
 94
        3
 73
     0
 74
     0
 95
       35
 96
       31
 40
0.0
 40
0.0
 40
0.0
 40
0.0
 40
1.0
 40
1.0
 40
1.0
 40
2.0
 40
2.0
 40
2.0
 40
3.0
 40
3.0
 40
3.0
 40
4.0
 40
4.0
 40
4.0
 40
5.0
 40
5.0
 40
5.0
 40
6.0
 40
6.0
 40
6.0
 40
7.0
 40
7.0
 40
7.0
 40
8.0
 40
8.0
 40
8.0
 40
9.0
 40
9.0
 40
9.0
 40
10.0
 40
10.0
 40
10.0
 40
10.0
 10
4.179589842705103
 20
-2.431031629166547
 10
4.179589842705103
 20
-2.431031629166547
 10
5.082032605066297
 20
-2.431031629166547
 10
5.082032605066297
 20
-2.431031629166547
 10
5.082032605066297
 20
-2.431031629166547
 10
5.082032605066297
 20
-2.577448187289665
 10
5.082032605066297
 20
-2.577448187289665
 10
5.082032605066297
 20
-2.577448187289665
 10
4.344954425997094
 20
-2.577448187289665
 10
4.344954425997094
 20
-2.577448187289665
 10
4.344954425997094
 20
-2.577448187289665
 10
4.344954425997094
 20
-3.317282442747068
 10
4.344954425997094
 20
-3.317282442747068
 10
4.344954425997094
 20
-3.317282442747068
 10
5.036040580338212
 20
-3.317282442747068
 10
5.036040580338212
 20
-3.317282442747068
 10
5.036040580338212
 20
-3.317282442747068
 10
5.036040580338212
 20
-3.463699000870186
 10
5.036040580338212
 20
-3.463699000870186
 10
5.036040580338212
 20
-3.463699000870186
 10
4.344954425997094
 20
-3.463699000870186
 10
4.344954425997094
 20
-3.463699000870186
 10
4.344954425997094
 20
-3.463699000870186
 10
4.344954425997094
 20
-4.366141763231381
 10
4.344954425997094
 20
-4.366141763231381
 10
4.344954425997094
 20
-4.366141763231381
 10
4.179589842705103
 20
-4.366141763231381
 10
4.179589842705103
 20
-4.366141763231381
 10
4.179589842705103
 20
-4.366141763231381
 10
4.179589842705103
 20
-2.431031629166547
 10
4.179589842705103
 20
-2.431031629166547
 97
        0
 97
        1
330
83
 75
     2
 76
     1
 98
        1
 10
0.0
 20
0.0
450
        0
451
        0
460
0.0
461
0.0
452
        0
462
0.0
453
        0
470

  0
SPLINE
  5
85
330
7D
100
AcDbEntity
  8
レイヤー 1
100
AcDbSpline
210
0.0
220
0.0
230
1.0
 70
    11
 71
     3
 72
    32
 73
    28
 74
     0
 42
0.0000000001
 43
0.0000000001
 40
0.0
 40
0.0
 40
0.0
 40
0.0
 40
1.0
 40
1.0
 40
1.0
 40
2.0
 40
2.0
 40
2.0
 40
3.0
 40
3.0
 40
3.0
 40
4.0
 40
4.0
 40
4.0
 40
5.0
 40
5.0
 40
5.0
 40
6.0
 40
6.0
 40
6.0
 40
7.0
 40
7.0
 40
7.0
 40
8.0
 40
8.0
 40
8.0
 40
9.0
 40
9.0
 40
9.0
 40
9.0
 10
5.716274683900792
 20
-3.539491101545682
 30
0.0
 10
5.716274683900792
 20
-3.539491101545682
 30
0.0
 10
5.209501138020542
 20
-2.431031629166547
 30
0.0
 10
5.209501138020542
 20
-2.431031629166547
 30
0.0
 10
5.209501138020542
 20
-2.431031629166547
 30
0.0
 10
5.391057670093208
 20
-2.431031629166547
 30
0.0
 10
5.391057670093208
 20
-2.431031629166547
 30
0.0
 10
5.391057670093208
 20
-2.431031629166547
 30
0.0
 10
5.802918835354826
 20
-3.37688259464189
 30
0.0
 10
5.802918835354826
 20
-3.37688259464189
 30
0.0
 10
5.802918835354826
 20
-3.37688259464189
 30
0.0
 10
6.217708331778906
 20
-2.431031629166547
 30
0.0
 10
6.217708331778906
 20
-2.431031629166547
 30
0.0
 10
6.217708331778906
 20
-2.431031629166547
 30
0.0
 10
6.385656736684835
 20
-2.431031629166547
 30
0.0
 10
6.385656736684835
 20
-2.431031629166547
 30
0.0
 10
6.385656736684835
 20
-2.431031629166547
 30
0.0
 10
5.881639267192785
 20
-3.534151203543545
 30
0.0
 10
5.881639267192785
 20
-3.534151203543545
 30
0.0
 10
5.881639267192785
 20
-3.534151203543545
 30
0.0
 10
5.881639267192785
 20
-4.366141763231381
 30
0.0
 10
5.881639267192785
 20
-4.366141763231381
 30
0.0
 10
5.881639267192785
 20
-4.366141763231381
 30
0.0
 10
5.716274683900792
 20
-4.366141763231381
 30
0.0
 10
5.716274683900792
 20
-4.366141763231381
 30
0.0
 10
5.716274683900792
 20
-4.366141763231381
 30
0.0
 10
5.716274683900792
 20
-3.539491101545682
 30
0.0
 10
5.716274683900792
 20
-3.539491101545682
 30
0.0
  0
HATCH
  5
86
330
7D
100
AcDbEntity
  8
レイヤー 1
 62
   250
420
  4078137
440
 33554687
100
AcDbHatch
 10
0.0
 20
0.0
 30
0.0
210
0.0
220
0.0
230
1.0
  2
SOLID
 70
     1
 71
     1
 91
        1
 92
        1
 93
        1
 72
     4
 94
        3
 73
     0
 74
     0
 95
       32
 96
       28
 40
0.0
 40
0.0
 40
0.0
 40
0.0
 40
1.0
 40
1.0
 40
1.0
 40
2.0
 40
2.0
 40
2.0
 40
3.0
 40
3.0
 40
3.0
 40
4.0
 40
4.0
 40
4.0
 40
5.0
 40
5.0
 40
5.0
 40
6.0
 40
6.0
 40
6.0
 40
7.0
 40
7.0
 40
7.0
 40
8.0
 40
8.0
 40
8.0
 40
9.0
 40
9.0
 40
9.0
 40
9.0
 10
5.716274683900792
 20
-3.539491101545682
 10
5.716274683900792
 20
-3.539491101545682
 10
5.209501138020542
 20
-2.431031629166547
 10
5.209501138020542
 20
-2.431031629166547
 10
5.209501138020542
 20
-2.431031629166547
 10
5.391057670093208
 20
-2.431031629166547
 10
5.391057670093208
 20
-2.431031629166547
 10
5.391057670093208
 20
-2.431031629166547
 10
5.802918835354826
 20
-3.37688259464189
 10
5.802918835354826
 20
-3.37688259464189
 10
5.802918835354826
 20
-3.37688259464189
 10
6.217708331778906
 20
-2.431031629166547
 10
6.217708331778906
 20
-2.431031629166547
 10
6.217708331778906
 20
-2.431031629166547
 10
6.385656736684835
 20
-2.431031629166547
 10
6.385656736684835
 20
-2.431031629166547
 10
6.385656736684835
 20
-2.431031629166547
 10
5.881639267192785
 20
-3.534151203543545
 10
5.881639267192785
 20
-3.534151203543545
 10
5.881639267192785
 20
-3.534151203543545
 10
5.881639267192785
 20
-4.366141763231381
 10
5.881639267192785
 20
-4.366141763231381
 10
5.881639267192785
 20
-4.366141763231381
 10
5.716274683900792
 20
-4.366141763231381
 10
5.716274683900792
 20
-4.366141763231381
 10
5.716274683900792
 20
-4.366141763231381
 10
5.716274683900792
 20
-3.539491101545682
 10
5.716274683900792
 20
-3.539491101545682
 97
        0
 97
        1
330
85
 75
     2
 76
     1
 98
        1
 10
0.0
 20
0.0
450
        0
451
        0
460
0.0
461
0.0
452
        0
462
0.0
453
        0
470

  0
SPLINE
  5
87
330
7D
100
AcDbEntity
  8
レイヤー 1
100
AcDbSpline
210
0.0
220
0.0
230
1.0
 70
    11
 71
     3
 72
    17
 73
    13
 74
     0
 42
0.0000000001
 43
0.0000000001
 40
0.0
 40
0.0
 40
0.0
 40
0.0
 40
1.0
 40
1.0
 40
1.0
 40
2.0
 40
2.0
 40
2.0
 40
3.0
 40
3.0
 40
3.0
 40
4.0
 40
4.0
 40
4.0
 40
4.0
 10
6.388412813073036
 20
-3.498838974819734
 30
0.0
 10
6.388412813073036
 20
-3.498838974819734
 30
0.0
 10
6.992682561185857
 20
-3.498838974819734
 30
0.0
 10
6.992682561185857
 20
-3.498838974819734
 30
0.0
 10
6.992682561185857
 20
-3.498838974819734
 30
0.0
 10
6.992682561185857
 20
-3.653351507333189
 30
0.0
 10
6.992682561185857
 20
-3.653351507333189
 30
0.0
 10
6.992682561185857
 20
-3.653351507333189
 30
0.0
 10
6.388412813073036
 20
-3.653351507333189
 30
0.0
 10
6.388412813073036
 20
-3.653351507333189
 30
0.0
 10
6.388412813073036
 20
-3.653351507333189
 30
0.0
 10
6.388412813073036
 20
-3.498838974819734
 30
0.0
 10
6.388412813073036
 20
-3.498838974819734
 30
0.0
  0
HATCH
  5
88
330
7D
100
AcDbEntity
  8
レイヤー 1
 62
   250
420
  4078137
440
 33554687
100
AcDbHatch
 10
0.0
 20
0.0
 30
0.0
210
0.0
220
0.0
230
1.0
  2
SOLID
 70
     1
 71
     1
 91
        1
 92
        1
 93
        1
 72
     4
 94
        3
 73
     0
 74
     0
 95
       17
 96
       13
 40
0.0
 40
0.0
 40
0.0
 40
0.0
 40
1.0
 40
1.0
 40
1.0
 40
2.0
 40
2.0
 40
2.0
 40
3.0
 40
3.0
 40
3.0
 40
4.0
 40
4.0
 40
4.0
 40
4.0
 10
6.388412813073036
 20
-3.498838974819734
 10
6.388412813073036
 20
-3.498838974819734
 10
6.992682561185857
 20
-3.498838974819734
 10
6.992682561185857
 20
-3.498838974819734
 10
6.992682561185857
 20
-3.498838974819734
 10
6.992682561185857
 20
-3.653351507333189
 10
6.992682561185857
 20
-3.653351507333189
 10
6.992682561185857
 20
-3.653351507333189
 10
6.388412813073036
 20
-3.653351507333189
 10
6.388412813073036
 20
-3.653351507333189
 10
6.388412813073036
 20
-3.653351507333189
 10
6.388412813073036
 20
-3.498838974819734
 10
6.388412813073036
 20
-3.498838974819734
 97
        0
 97
        1
330
87
 75
     2
 76
     1
 98
        1
 10
0.0
 20
0.0
450
        0
451
        0
460
0.0
461
0.0
452
        0
462
0.0
453
        0
470

  0
SPLINE
  5
89
330
7D
100
AcDbEntity
  8
レイヤー 1
100
AcDbSpline
210
0.0
220
0.0
230
1.0
 70
     9
 71
     3
 72
    86
 73
    82
 74
     0
 42
0.0000000001
 43
0.0000000001
 40
0.0
 40
0.0
 40
0.0
 40
0.0
 40
1.0
 40
1.0
 40
1.0
 40
2.0
 40
2.0
 40
2.0
 40
3.0
 40
3.0
 40
3.0
 40
4.0
 40
4.0
 40
4.0
 40
5.0
 40
5.0
 40
5.0
 40
6.0
 40
6.0
 40
6.0
 40
7.0
 40
7.0
 40
7.0
 40
8.0
 40
8.0
 40
8.0
 40
9.0
 40
9.0
 40
9.0
 40
10.0
 40
10.0
 40
10.0
 40
11.0
 40
11.0
 40
11.0
 40
12.0
 40
12.0
 40
12.0
 40
13.0
 40
13.0
 40
13.0
 40
14.0
 40
14.0
 40
14.0
 40
15.0
 40
15.0
 40
15.0
 40
16.0
 40
16.0
 40
16.0
 40
17.0
 40
17.0
 40
17.0
 40
18.0
 40
18.0
 40
18.0
 40
19.0
 40
19.0
 40
19.0
 40
20.0
 40
20.0
 40
20.0
 40
21.0
 40
21.0
 40
21.0
 40
22.0
 40
22.0
 40
22.0
 40
23.0
 40
23.0
 40
23.0
 40
24.0
 40
24.0
 40
24.0
 40
25.0
 40
25.0
 40
25.0
 40
26.0
 40
26.0
 40
26.0
 40
27.0
 40
27.0
 40
27.0
 40
27.0
 10
8.133698185900604
 20
-3.878316242520004
 30
0.0
 10
8.133698185900604
 20
-3.764455836732497
 30
0.0
 10
8.109582517503854
 20
-3.675916882761576
 30
0.0
 10
8.061867945033144
 20
-3.612699380607241
 30
0.0
 10
8.013981117788171
 20
-3.549481878452907
 30
0.0
 10
7.933882647756113
 20
-3.500733777336622
 30
0.0
 10
7.821917044485493
 20
-3.466282822484124
 30
0.0
 10
7.821917044485493
 20
-3.466282822484124
 30
0.0
 10
7.643116588801026
 20
-3.409438746977501
 30
0.0
 10
7.643116588801026
 20
-3.409438746977501
 30
0.0
 10
7.505657278939557
 20
-3.366030543863353
 30
0.0
 10
7.404026962124688
 20
-3.303329806031806
 30
0.0
 10
7.338225638356416
 20
-3.220992023934335
 30
0.0
 10
7.272252059813881
 20
-3.138826496611126
 30
0.0
 10
7.239179143155483
 20
-3.031856281794119
 30
0.0
 10
7.239179143155483
 20
-2.89990912470905
 30
0.0
 10
7.239179143155483
 20
-2.744535318324282
 30
0.0
 10
7.287582734723243
 20
-2.619478352209713
 30
0.0
 10
7.384217663084501
 20
-2.52456597159108
 30
0.0
 10
7.480852591445759
 20
-2.429653590972447
 30
0.0
 10
7.608665633948528
 20
-2.382283528050262
 30
0.0
 10
7.76782904536707
 20
-2.382283528050262
 30
0.0
 10
8.05325520632002
 20
-2.382283528050262
 30
0.0
 10
8.225854490131036
 20
-2.541274684694542
 30
0.0
 10
8.285454642025859
 20
-2.859256997983102
 30
0.0
 10
8.285454642025859
 20
-2.859256997983102
 30
0.0
 10
8.130942109512403
 20
-2.891813150318713
 30
0.0
 10
8.130942109512403
 20
-2.891813150318713
 30
0.0
 10
8.102003307436305
 20
-2.763483343493156
 30
0.0
 10
8.059111868644944
 20
-2.670465765391411
 30
0.0
 10
8.002095538364059
 20
-2.612588161239214
 30
0.0
 10
7.945251462857437
 20
-2.554882811861279
 30
0.0
 10
7.866186521470953
 20
-2.52594400978518
 30
0.0
 10
7.765072968978871
 20
-2.52594400978518
 30
0.0
 10
7.652935110933988
 20
-2.52594400978518
 30
0.0
 10
7.566290959479955
 20
-2.557466633475216
 30
0.0
 10
7.504796005068246
 20
-2.620684135629551
 30
0.0
 10
7.443473305430798
 20
-2.684073892558148
 30
0.0
 10
7.412639700837812
 20
-2.775196668143006
 30
0.0
 10
7.412639700837812
 20
-2.894569226706913
 30
0.0
 10
7.412639700837812
 20
-2.993960231456371
 30
0.0
 10
7.434860566717674
 20
-3.07199164419728
 30
0.0
 10
7.479130043703134
 20
-3.129007974478164
 30
0.0
 10
7.523399520688594
 20
-3.185852049984787
 30
0.0
 10
7.596952309298679
 20
-3.230638291293034
 30
0.0
 10
7.699960664307648
 20
-3.263022188854383
 30
0.0
 10
7.699960664307648
 20
-3.263022188854383
 30
0.0
 10
7.895125323547052
 20
-3.322794595523468
 30
0.0
 10
7.895125323547052
 20
-3.322794595523468
 30
0.0
 10
8.039647079153283
 20
-3.36792534638024
 30
0.0
 10
8.144377981904877
 20
-3.433898924922775
 30
0.0
 10
8.2094902865761
 20
-3.520543076376808
 30
0.0
 10
8.274602591247321
 20
-3.607359482605104
 30
0.0
 10
8.307158743582933
 20
-3.725698512523436
 30
0.0
 10
8.307158743582933
 20
-3.875560166131804
 30
0.0
 10
8.307158743582933
 20
-4.040063475552484
 30
0.0
 10
8.258755152015172
 20
-4.170977103991978
 30
0.0
 10
8.162120223653914
 20
-4.268645560998811
 30
0.0
 10
8.065485295292656
 20
-4.366141763231381
 30
0.0
 10
7.934916176401688
 20
-4.414889864347666
 30
0.0
 10
7.770412866981008
 20
-4.414889864347666
 30
0.0
 10
7.602464462075078
 20
-4.414889864347666
 30
0.0
 10
7.47051730499001
 20
-4.368381075296793
 30
0.0
 10
7.374743650500064
 20
-4.275363497195048
 30
0.0
 10
7.278969996010118
 20
-4.182345919093302
 30
0.0
 10
7.221092391857921
 20
-4.046264647425934
 30
0.0
 10
7.201283092817734
 20
-3.867464191741467
 30
0.0
 10
7.201283092817734
 20
-3.867464191741467
 30
0.0
 10
7.369403752497927
 20
-3.867464191741467
 30
0.0
 10
7.369403752497927
 20
-3.867464191741467
 30
0.0
 10
7.385595701278601
 20
-4.004751246828673
 30
0.0
 10
7.426764592327336
 20
-4.106381563643544
 30
0.0
 10
7.492738170869871
 20
-4.172355142186078
 30
0.0
 10
7.558539494638143
 20
-4.238328720728612
 30
0.0
 10
7.652073837062676
 20
-4.271229382612748
 30
0.0
 10
7.773168943369207
 20
-4.271229382612748
 30
0.0
 10
7.887029349156715
 20
-4.271229382612748
 30
0.0
 10
7.975568303127635
 20
-4.236950682534512
 30
0.0
 10
8.038785805281969
 20
-4.168221027603777
 30
0.0
 10
8.102003307436305
 20
-4.099663627447306
 30
0.0
 10
8.133698185900604
 20
-4.003028699086048
 30
0.0
 10
8.133698185900604
 20
-3.878316242520004
 30
0.0
  0
HATCH
  5
8A
330
7D
100
AcDbEntity
  8
レイヤー 1
 62
   250
420
  4078137
440
 33554687
100
AcDbHatch
 10
0.0
 20
0.0
 30
0.0
210
0.0
220
0.0
230
1.0
  2
SOLID
 70
     1
 71
     1
 91
        1
 92
        1
 93
        1
 72
     4
 94
        3
 73
     0
 74
     0
 95
       86
 96
       82
 40
0.0
 40
0.0
 40
0.0
 40
0.0
 40
1.0
 40
1.0
 40
1.0
 40
2.0
 40
2.0
 40
2.0
 40
3.0
 40
3.0
 40
3.0
 40
4.0
 40
4.0
 40
4.0
 40
5.0
 40
5.0
 40
5.0
 40
6.0
 40
6.0
 40
6.0
 40
7.0
 40
7.0
 40
7.0
 40
8.0
 40
8.0
 40
8.0
 40
9.0
 40
9.0
 40
9.0
 40
10.0
 40
10.0
 40
10.0
 40
11.0
 40
11.0
 40
11.0
 40
12.0
 40
12.0
 40
12.0
 40
13.0
 40
13.0
 40
13.0
 40
14.0
 40
14.0
 40
14.0
 40
15.0
 40
15.0
 40
15.0
 40
16.0
 40
16.0
 40
16.0
 40
17.0
 40
17.0
 40
17.0
 40
18.0
 40
18.0
 40
18.0
 40
19.0
 40
19.0
 40
19.0
 40
20.0
 40
20.0
 40
20.0
 40
21.0
 40
21.0
 40
21.0
 40
22.0
 40
22.0
 40
22.0
 40
23.0
 40
23.0
 40
23.0
 40
24.0
 40
24.0
 40
24.0
 40
25.0
 40
25.0
 40
25.0
 40
26.0
 40
26.0
 40
26.0
 40
27.0
 40
27.0
 40
27.0
 40
27.0
 10
8.133698185900604
 20
-3.878316242520004
 10
8.133698185900604
 20
-3.764455836732497
 10
8.109582517503854
 20
-3.675916882761576
 10
8.061867945033144
 20
-3.612699380607241
 10
8.013981117788171
 20
-3.549481878452907
 10
7.933882647756113
 20
-3.500733777336622
 10
7.821917044485493
 20
-3.466282822484124
 10
7.821917044485493
 20
-3.466282822484124
 10
7.643116588801026
 20
-3.409438746977501
 10
7.643116588801026
 20
-3.409438746977501
 10
7.505657278939557
 20
-3.366030543863353
 10
7.404026962124688
 20
-3.303329806031806
 10
7.338225638356416
 20
-3.220992023934335
 10
7.272252059813881
 20
-3.138826496611126
 10
7.239179143155483
 20
-3.031856281794119
 10
7.239179143155483
 20
-2.89990912470905
 10
7.239179143155483
 20
-2.744535318324282
 10
7.287582734723243
 20
-2.619478352209713
 10
7.384217663084501
 20
-2.52456597159108
 10
7.480852591445759
 20
-2.429653590972447
 10
7.608665633948528
 20
-2.382283528050262
 10
7.76782904536707
 20
-2.382283528050262
 10
8.05325520632002
 20
-2.382283528050262
 10
8.225854490131036
 20
-2.541274684694542
 10
8.285454642025859
 20
-2.859256997983102
 10
8.285454642025859
 20
-2.859256997983102
 10
8.130942109512403
 20
-2.891813150318713
 10
8.130942109512403
 20
-2.891813150318713
 10
8.102003307436305
 20
-2.763483343493156
 10
8.059111868644944
 20
-2.670465765391411
 10
8.002095538364059
 20
-2.612588161239214
 10
7.945251462857437
 20
-2.554882811861279
 10
7.866186521470953
 20
-2.52594400978518
 10
7.765072968978871
 20
-2.52594400978518
 10
7.652935110933988
 20
-2.52594400978518
 10
7.566290959479955
 20
-2.557466633475216
 10
7.504796005068246
 20
-2.620684135629551
 10
7.443473305430798
 20
-2.684073892558148
 10
7.412639700837812
 20
-2.775196668143006
 10
7.412639700837812
 20
-2.894569226706913
 10
7.412639700837812
 20
-2.993960231456371
 10
7.434860566717674
 20
-3.07199164419728
 10
7.479130043703134
 20
-3.129007974478164
 10
7.523399520688594
 20
-3.185852049984787
 10
7.596952309298679
 20
-3.230638291293034
 10
7.699960664307648
 20
-3.263022188854383
 10
7.699960664307648
 20
-3.263022188854383
 10
7.895125323547052
 20
-3.322794595523468
 10
7.895125323547052
 20
-3.322794595523468
 10
8.039647079153283
 20
-3.36792534638024
 10
8.144377981904877
 20
-3.433898924922775
 10
8.2094902865761
 20
-3.520543076376808
 10
8.274602591247321
 20
-3.607359482605104
 10
8.307158743582933
 20
-3.725698512523436
 10
8.307158743582933
 20
-3.875560166131804
 10
8.307158743582933
 20
-4.040063475552484
 10
8.258755152015172
 20
-4.170977103991978
 10
8.162120223653914
 20
-4.268645560998811
 10
8.065485295292656
 20
-4.366141763231381
 10
7.934916176401688
 20
-4.414889864347666
 10
7.770412866981008
 20
-4.414889864347666
 10
7.602464462075078
 20
-4.414889864347666
 10
7.47051730499001
 20
-4.368381075296793
 10
7.374743650500064
 20
-4.275363497195048
 10
7.278969996010118
 20
-4.182345919093302
 10
7.221092391857921
 20
-4.046264647425934
 10
7.201283092817734
 20
-3.867464191741467
 10
7.201283092817734
 20
-3.867464191741467
 10
7.369403752497927
 20
-3.867464191741467
 10
7.369403752497927
 20
-3.867464191741467
 10
7.385595701278601
 20
-4.004751246828673
 10
7.426764592327336
 20
-4.106381563643544
 10
7.492738170869871
 20
-4.172355142186078
 10
7.558539494638143
 20
-4.238328720728612
 10
7.652073837062676
 20
-4.271229382612748
 10
7.773168943369207
 20
-4.271229382612748
 10
7.887029349156715
 20
-4.271229382612748
 10
7.975568303127635
 20
-4.236950682534512
 10
8.038785805281969
 20
-4.168221027603777
 10
8.102003307436305
 20
-4.099663627447306
 10
8.133698185900604
 20
-4.003028699086048
 10
8.133698185900604
 20
-3.878316242520004
 97
        0
 97
        1
330
89
 75
     2
 76
     1
 98
        1
 10
0.0
 20
0.0
450
        0
451
        0
460
0.0
461
0.0
452
        0
462
0.0
453
        0
470

  0
SPLINE
  5
8B
330
7D
100
AcDbEntity
  8
レイヤー 1
100
AcDbSpline
210
0.0
220
0.0
230
1.0
 70
     9
 71
     3
 72
    56
 73
    52
 74
     0
 42
0.0000000001
 43
0.0000000001
 40
0.0
 40
0.0
 40
0.0
 40
0.0
 40
1.0
 40
1.0
 40
1.0
 40
2.0
 40
2.0
 40
2.0
 40
3.0
 40
3.0
 40
3.0
 40
4.0
 40
4.0
 40
4.0
 40
5.0
 40
5.0
 40
5.0
 40
6.0
 40
6.0
 40
6.0
 40
7.0
 40
7.0
 40
7.0
 40
8.0
 40
8.0
 40
8.0
 40
9.0
 40
9.0
 40
9.0
 40
10.0
 40
10.0
 40
10.0
 40
11.0
 40
11.0
 40
11.0
 40
12.0
 40
12.0
 40
12.0
 40
13.0
 40
13.0
 40
13.0
 40
14.0
 40
14.0
 40
14.0
 40
15.0
 40
15.0
 40
15.0
 40
16.0
 40
16.0
 40
16.0
 40
17.0
 40
17.0
 40
17.0
 40
17.0
 10
8.624279783000179
 20
-4.030072698645259
 30
0.0
 10
8.624279783000179
 20
-4.030072698645259
 30
0.0
 10
8.624279783000179
 20
-3.097829860336653
 30
0.0
 10
8.624279783000179
 20
-3.097829860336653
 30
0.0
 10
8.624279783000179
 20
-3.097829860336653
 30
0.0
 10
8.448063148929652
 20
-3.097829860336653
 30
0.0
 10
8.448063148929652
 20
-3.097829860336653
 30
0.0
 10
8.448063148929652
 20
-3.097829860336653
 30
0.0
 10
8.448063148929652
 20
-2.973117403770609
 30
0.0
 10
8.448063148929652
 20
-2.973117403770609
 30
0.0
 10
8.448063148929652
 20
-2.973117403770609
 30
0.0
 10
8.624279783000179
 20
-2.973117403770609
 30
0.0
 10
8.624279783000179
 20
-2.973117403770609
 30
0.0
 10
8.624279783000179
 20
-2.973117403770609
 30
0.0
 10
8.624279783000179
 20
-2.588300238068202
 30
0.0
 10
8.624279783000179
 20
-2.588300238068202
 30
0.0
 10
8.624279783000179
 20
-2.588300238068202
 30
0.0
 10
8.776036239125435
 20
-2.588300238068202
 30
0.0
 10
8.776036239125435
 20
-2.588300238068202
 30
0.0
 10
8.776036239125435
 20
-2.588300238068202
 30
0.0
 10
8.776036239125435
 20
-2.973117403770609
 30
0.0
 10
8.776036239125435
 20
-2.973117403770609
 30
0.0
 10
8.776036239125435
 20
-2.973117403770609
 30
0.0
 10
9.079549151375946
 20
-2.973117403770609
 30
0.0
 10
9.079549151375946
 20
-2.973117403770609
 30
0.0
 10
9.079549151375946
 20
-2.973117403770609
 30
0.0
 10
9.079549151375946
 20
-3.097829860336653
 30
0.0
 10
9.079549151375946
 20
-3.097829860336653
 30
0.0
 10
9.079549151375946
 20
-3.097829860336653
 30
0.0
 10
8.776036239125435
 20
-3.097829860336653
 30
0.0
 10
8.776036239125435
 20
-3.097829860336653
 30
0.0
 10
8.776036239125435
 20
-3.097829860336653
 30
0.0
 10
8.776036239125435
 20
-4.040924749423797
 30
0.0
 10
8.776036239125435
 20
-4.040924749423797
 30
0.0
 10
8.776036239125435
 20
-4.190958657806427
 30
0.0
 10
8.831157766889432
 20
-4.26588948461061
 30
0.0
 10
8.941400822417428
 20
-4.26588948461061
 30
0.0
 10
8.9865315732742
 20
-4.26588948461061
 30
0.0
 10
9.031662324130973
 20
-4.255037433832074
 30
0.0
 10
9.076793074987746
 20
-4.233333332275
 30
0.0
 10
9.076793074987746
 20
-4.233333332275
 30
0.0
 10
9.106593150935157
 20
-4.349949814450707
 30
0.0
 10
9.106593150935157
 20
-4.349949814450707
 30
0.0
 10
9.041653101038198
 20
-4.38061116426943
 30
0.0
 10
8.975679522495664
 20
-4.395941839178792
 30
0.0
 10
8.908844670081817
 20
-4.395941839178792
 30
0.0
 10
8.816688365851383
 20
-4.395941839178792
 30
0.0
 10
8.746236163178025
 20
-4.364419215488756
 30
0.0
 10
8.697488062061738
 20
-4.301029458560159
 30
0.0
 10
8.648567706171192
 20
-4.237811956405825
 30
0.0
 10
8.624279783000179
 20
-4.147550454692279
 30
0.0
 10
8.624279783000179
 20
-4.030072698645259
 30
0.0
  0
HATCH
  5
8C
330
7D
100
AcDbEntity
  8
レイヤー 1
 62
   250
420
  4078137
440
 33554687
100
AcDbHatch
 10
0.0
 20
0.0
 30
0.0
210
0.0
220
0.0
230
1.0
  2
SOLID
 70
     1
 71
     1
 91
        1
 92
        1
 93
        1
 72
     4
 94
        3
 73
     0
 74
     0
 95
       56
 96
       52
 40
0.0
 40
0.0
 40
0.0
 40
0.0
 40
1.0
 40
1.0
 40
1.0
 40
2.0
 40
2.0
 40
2.0
 40
3.0
 40
3.0
 40
3.0
 40
4.0
 40
4.0
 40
4.0
 40
5.0
 40
5.0
 40
5.0
 40
6.0
 40
6.0
 40
6.0
 40
7.0
 40
7.0
 40
7.0
 40
8.0
 40
8.0
 40
8.0
 40
9.0
 40
9.0
 40
9.0
 40
10.0
 40
10.0
 40
10.0
 40
11.0
 40
11.0
 40
11.0
 40
12.0
 40
12.0
 40
12.0
 40
13.0
 40
13.0
 40
13.0
 40
14.0
 40
14.0
 40
14.0
 40
15.0
 40
15.0
 40
15.0
 40
16.0
 40
16.0
 40
16.0
 40
17.0
 40
17.0
 40
17.0
 40
17.0
 10
8.624279783000179
 20
-4.030072698645259
 10
8.624279783000179
 20
-4.030072698645259
 10
8.624279783000179
 20
-3.097829860336653
 10
8.624279783000179
 20
-3.097829860336653
 10
8.624279783000179
 20
-3.097829860336653
 10
8.448063148929652
 20
-3.097829860336653
 10
8.448063148929652
 20
-3.097829860336653
 10
8.448063148929652
 20
-3.097829860336653
 10
8.448063148929652
 20
-2.973117403770609
 10
8.448063148929652
 20
-2.973117403770609
 10
8.448063148929652
 20
-2.973117403770609
 10
8.624279783000179
 20
-2.973117403770609
 10
8.624279783000179
 20
-2.973117403770609
 10
8.624279783000179
 20
-2.973117403770609
 10
8.624279783000179
 20
-2.588300238068202
 10
8.624279783000179
 20
-2.588300238068202
 10
8.624279783000179
 20
-2.588300238068202
 10
8.776036239125435
 20
-2.588300238068202
 10
8.776036239125435
 20
-2.588300238068202
 10
8.776036239125435
 20
-2.588300238068202
 10
8.776036239125435
 20
-2.973117403770609
 10
8.776036239125435
 20
-2.973117403770609
 10
8.776036239125435
 20
-2.973117403770609
 10
9.079549151375946
 20
-2.973117403770609
 10
9.079549151375946
 20
-2.973117403770609
 10
9.079549151375946
 20
-2.973117403770609
 10
9.079549151375946
 20
-3.097829860336653
 10
9.079549151375946
 20
-3.097829860336653
 10
9.079549151375946
 20
-3.097829860336653
 10
8.776036239125435
 20
-3.097829860336653
 10
8.776036239125435
 20
-3.097829860336653
 10
8.776036239125435
 20
-3.097829860336653
 10
8.776036239125435
 20
-4.040924749423797
 10
8.776036239125435
 20
-4.040924749423797
 10
8.776036239125435
 20
-4.190958657806427
 10
8.831157766889432
 20
-4.26588948461061
 10
8.941400822417428
 20
-4.26588948461061
 10
8.9865315732742
 20
-4.26588948461061
 10
9.031662324130973
 20
-4.255037433832074
 10
9.076793074987746
 20
-4.233333332275
 10
9.076793074987746
 20
-4.233333332275
 10
9.106593150935157
 20
-4.349949814450707
 10
9.106593150935157
 20
-4.349949814450707
 10
9.041653101038198
 20
-4.38061116426943
 10
8.975679522495664
 20
-4.395941839178792
 10
8.908844670081817
 20
-4.395941839178792
 10
8.816688365851383
 20
-4.395941839178792
 10
8.746236163178025
 20
-4.364419215488756
 10
8.697488062061738
 20
-4.301029458560159
 10
8.648567706171192
 20
-4.237811956405825
 10
8.624279783000179
 20
-4.147550454692279
 10
8.624279783000179
 20
-4.030072698645259
 97
        0
 97
        1
330
8B
 75
     2
 76
     1
 98
        1
 10
0.0
 20
0.0
450
        0
451
        0
460
0.0
461
0.0
452
        0
462
0.0
453
        0
470

  0
SPLINE
  5
8D
330
7D
100
AcDbEntity
  8
レイヤー 1
100
AcDbSpline
210
0.0
220
0.0
230
1.0
 70
    11
 71
     3
 72
    53
 73
    49
 74
     0
 42
0.0000000001
 43
0.0000000001
 40
0.0
 40
0.0
 40
0.0
 40
0.0
 40
1.0
 40
1.0
 40
1.0
 40
2.0
 40
2.0
 40
2.0
 40
3.0
 40
3.0
 40
3.0
 40
4.0
 40
4.0
 40
4.0
 40
5.0
 40
5.0
 40
5.0
 40
6.0
 40
6.0
 40
6.0
 40
7.0
 40
7.0
 40
7.0
 40
8.0
 40
8.0
 40
8.0
 40
9.0
 40
9.0
 40
9.0
 40
10.0
 40
10.0
 40
10.0
 40
11.0
 40
11.0
 40
11.0
 40
12.0
 40
12.0
 40
12.0
 40
13.0
 40
13.0
 40
13.0
 40
14.0
 40
14.0
 40
14.0
 40
15.0
 40
15.0
 40
15.0
 40
16.0
 40
16.0
 40
16.0
 40
16.0
 10
9.339653860512308
 20
-2.973117403770609
 30
0.0
 10
9.339653860512308
 20
-2.973117403770609
 30
0.0
 10
9.491410316637564
 20
-2.973117403770609
 30
0.0
 10
9.491410316637564
 20
-2.973117403770609
 30
0.0
 10
9.491410316637564
 20
-2.973117403770609
 30
0.0
 10
9.491410316637564
 20
-3.17637803740035
 30
0.0
 10
9.491410316637564
 20
-3.17637803740035
 30
0.0
 10
9.529306366975312
 20
-3.10592583472699
 30
0.0
 10
9.576848684671761
 20
-3.050287542640206
 30
0.0
 10
9.633692760178382
 20
-3.009635415914257
 30
0.0
 10
9.690709090459266
 20
-2.968983289188309
 30
0.0
 10
9.749792478031302
 20
-2.948657225825335
 30
0.0
 10
9.811287432443011
 20
-2.948657225825335
 30
0.0
 10
9.827479381223685
 20
-2.948657225825335
 30
0.0
 10
9.842810056133048
 20
-2.94969075447091
 30
0.0
 10
9.857279457171097
 20
-2.951413302213535
 30
0.0
 10
9.871748858209146
 20
-2.953308104730423
 30
0.0
 10
9.887079533118507
 20
-2.95589192634436
 30
0.0
 10
9.903443736673445
 20
-2.959509276603872
 30
0.0
 10
9.903443736673445
 20
-2.959509276603872
 30
0.0
 10
9.881739635116371
 20
-3.10592583472699
 30
0.0
 10
9.881739635116371
 20
-3.10592583472699
 30
0.0
 10
9.867270234078322
 20
-3.102308484467478
 30
0.0
 10
9.851939559168959
 20
-3.099552408079278
 30
0.0
 10
9.835575355614023
 20
-3.097829860336653
 30
0.0
 10
9.819383406833349
 20
-3.095935057819766
 30
0.0
 10
9.804052731923986
 20
-3.095073783948453
 30
0.0
 10
9.789583330885937
 20
-3.095073783948453
 30
0.0
 10
9.735323076993253
 20
-3.095073783948453
 30
0.0
 10
9.685196937682867
 20
-3.110921223180603
 30
0.0
 10
9.639204912954783
 20
-3.142443846870639
 30
0.0
 10
9.593040633452433
 20
-3.174138725334937
 30
0.0
 10
9.557383895180098
 20
-3.213412813866785
 30
0.0
 10
9.532062443363512
 20
-3.260438367240446
 30
0.0
 10
9.51948784484235
 20
-3.281970214023257
 30
0.0
 10
9.509497067935125
 20
-3.305569118097218
 30
0.0
 10
9.502262367416101
 20
-3.330890569913805
 30
0.0
 10
9.495027666897076
 20
-3.356212021730391
 30
0.0
 10
9.491410316637564
 20
-3.381361218772715
 30
0.0
 10
9.491410316637564
 20
-3.406682670589301
 30
0.0
 10
9.491410316637564
 20
-3.406682670589301
 30
0.0
 10
9.491410316637564
 20
-4.366141763231381
 30
0.0
 10
9.491410316637564
 20
-4.366141763231381
 30
0.0
 10
9.491410316637564
 20
-4.366141763231381
 30
0.0
 10
9.339653860512308
 20
-4.366141763231381
 30
0.0
 10
9.339653860512308
 20
-4.366141763231381
 30
0.0
 10
9.339653860512308
 20
-4.366141763231381
 30
0.0
 10
9.339653860512308
 20
-2.973117403770609
 30
0.0
 10
9.339653860512308
 20
-2.973117403770609
 30
0.0
  0
HATCH
  5
8E
330
7D
100
AcDbEntity
  8
レイヤー 1
 62
   250
420
  4078137
440
 33554687
100
AcDbHatch
 10
0.0
 20
0.0
 30
0.0
210
0.0
220
0.0
230
1.0
  2
SOLID
 70
     1
 71
     1
 91
        1
 92
        1
 93
        1
 72
     4
 94
        3
 73
     0
 74
     0
 95
       53
 96
       49
 40
0.0
 40
0.0
 40
0.0
 40
0.0
 40
1.0
 40
1.0
 40
1.0
 40
2.0
 40
2.0
 40
2.0
 40
3.0
 40
3.0
 40
3.0
 40
4.0
 40
4.0
 40
4.0
 40
5.0
 40
5.0
 40
5.0
 40
6.0
 40
6.0
 40
6.0
 40
7.0
 40
7.0
 40
7.0
 40
8.0
 40
8.0
 40
8.0
 40
9.0
 40
9.0
 40
9.0
 40
10.0
 40
10.0
 40
10.0
 40
11.0
 40
11.0
 40
11.0
 40
12.0
 40
12.0
 40
12.0
 40
13.0
 40
13.0
 40
13.0
 40
14.0
 40
14.0
 40
14.0
 40
15.0
 40
15.0
 40
15.0
 40
16.0
 40
16.0
 40
16.0
 40
16.0
 10
9.339653860512308
 20
-2.973117403770609
 10
9.339653860512308
 20
-2.973117403770609
 10
9.491410316637564
 20
-2.973117403770609
 10
9.491410316637564
 20
-2.973117403770609
 10
9.491410316637564
 20
-2.973117403770609
 10
9.491410316637564
 20
-3.17637803740035
 10
9.491410316637564
 20
-3.17637803740035
 10
9.529306366975312
 20
-3.10592583472699
 10
9.576848684671761
 20
-3.050287542640206
 10
9.633692760178382
 20
-3.009635415914257
 10
9.690709090459266
 20
-2.968983289188309
 10
9.749792478031302
 20
-2.948657225825335
 10
9.811287432443011
 20
-2.948657225825335
 10
9.827479381223685
 20
-2.948657225825335
 10
9.842810056133048
 20
-2.94969075447091
 10
9.857279457171097
 20
-2.951413302213535
 10
9.871748858209146
 20
-2.953308104730423
 10
9.887079533118507
 20
-2.95589192634436
 10
9.903443736673445
 20
-2.959509276603872
 10
9.903443736673445
 20
-2.959509276603872
 10
9.881739635116371
 20
-3.10592583472699
 10
9.881739635116371
 20
-3.10592583472699
 10
9.867270234078322
 20
-3.102308484467478
 10
9.851939559168959
 20
-3.099552408079278
 10
9.835575355614023
 20
-3.097829860336653
 10
9.819383406833349
 20
-3.095935057819766
 10
9.804052731923986
 20
-3.095073783948453
 10
9.789583330885937
 20
-3.095073783948453
 10
9.735323076993253
 20
-3.095073783948453
 10
9.685196937682867
 20
-3.110921223180603
 10
9.639204912954783
 20
-3.142443846870639
 10
9.593040633452433
 20
-3.174138725334937
 10
9.557383895180098
 20
-3.213412813866785
 10
9.532062443363512
 20
-3.260438367240446
 10
9.51948784484235
 20
-3.281970214023257
 10
9.509497067935125
 20
-3.305569118097218
 10
9.502262367416101
 20
-3.330890569913805
 10
9.495027666897076
 20
-3.356212021730391
 10
9.491410316637564
 20
-3.381361218772715
 10
9.491410316637564
 20
-3.406682670589301
 10
9.491410316637564
 20
-3.406682670589301
 10
9.491410316637564
 20
-4.366141763231381
 10
9.491410316637564
 20
-4.366141763231381
 10
9.491410316637564
 20
-4.366141763231381
 10
9.339653860512308
 20
-4.366141763231381
 10
9.339653860512308
 20
-4.366141763231381
 10
9.339653860512308
 20
-4.366141763231381
 10
9.339653860512308
 20
-2.973117403770609
 10
9.339653860512308
 20
-2.973117403770609
 97
        0
 97
        1
330
8D
 75
     2
 76
     1
 98
        1
 10
0.0
 20
0.0
450
        0
451
        0
460
0.0
461
0.0
452
        0
462
0.0
453
        0
470

  0
SPLINE
  5
8F
330
7D
100
AcDbEntity
  8
レイヤー 1
100
AcDbSpline
210
0.0
220
0.0
230
1.0
 70
     9
 71
     3
 72
    29
 73
    25
 74
     0
 42
0.0000000001
 43
0.0000000001
 40
0.0
 40
0.0
 40
0.0
 40
0.0
 40
1.0
 40
1.0
 40
1.0
 40
2.0
 40
2.0
 40
2.0
 40
3.0
 40
3.0
 40
3.0
 40
4.0
 40
4.0
 40
4.0
 40
5.0
 40
5.0
 40
5.0
 40
6.0
 40
6.0
 40
6.0
 40
7.0
 40
7.0
 40
7.0
 40
8.0
 40
8.0
 40
8.0
 40
8.0
 10
10.20954047053789
 20
-3.978568521140774
 30
0.0
 10
10.20954047053789
 20
-4.070724825371208
 30
0.0
 10
10.23124457209497
 20
-4.142210556690142
 30
0.0
 10
10.27465277520911
 20
-4.192681205549051
 30
0.0
 10
10.317888723549
 20
-4.243324109182224
 30
0.0
 10
10.37852240408939
 20
-4.268645560998811
 30
0.0
 10
10.45620930728178
 20
-4.268645560998811
 30
0.0
 10
10.51942680943611
 20
-4.268645560998811
 30
0.0
 10
10.57627088494274
 20
-4.251936847895349
 30
0.0
 10
10.62691378857591
 20
-4.218519421688426
 30
0.0
 10
10.67755669220908
 20
-4.185101995481502
 30
0.0
 10
10.71769205461224
 20
-4.140832518496042
 30
0.0
 10
10.74749213055965
 20
-4.085710990732044
 30
0.0
 10
10.77729220650706
 20
-4.030589462968046
 30
0.0
 10
10.7922783718679
 20
-3.970472546750437
 30
0.0
 10
10.7922783718679
 20
-3.905360242079215
 30
0.0
 10
10.7922783718679
 20
-3.905360242079215
 30
0.0
 10
10.7922783718679
 20
-3.620795354997579
 30
0.0
 10
10.7922783718679
 20
-3.620795354997579
 30
0.0
 10
10.7922783718679
 20
-3.620795354997579
 30
0.0
 10
10.61072183979523
 20
-3.631647405776115
 30
0.0
 10
10.61072183979523
 20
-3.631647405776115
 30
0.0
 10
10.34321017536558
 20
-3.651628959590565
 30
0.0
 10
10.20954047053789
 20
-3.767211913120697
 30
0.0
 10
10.20954047053789
 20
-3.978568521140774
 30
0.0
  0
SPLINE
  5
90
330
7D
100
AcDbEntity
  8
レイヤー 1
100
AcDbSpline
210
0.0
220
0.0
230
1.0
 70
     9
 71
     3
 72
    65
 73
    61
 74
     0
 42
0.0000000001
 43
0.0000000001
 40
0.0
 40
0.0
 40
0.0
 40
0.0
 40
1.0
 40
1.0
 40
1.0
 40
2.0
 40
2.0
 40
2.0
 40
3.0
 40
3.0
 40
3.0
 40
4.0
 40
4.0
 40
4.0
 40
5.0
 40
5.0
 40
5.0
 40
6.0
 40
6.0
 40
6.0
 40
7.0
 40
7.0
 40
7.0
 40
8.0
 40
8.0
 40
8.0
 40
9.0
 40
9.0
 40
9.0
 40
10.0
 40
10.0
 40
10.0
 40
11.0
 40
11.0
 40
11.0
 40
12.0
 40
12.0
 40
12.0
 40
13.0
 40
13.0
 40
13.0
 40
14.0
 40
14.0
 40
14.0
 40
15.0
 40
15.0
 40
15.0
 40
16.0
 40
16.0
 40
16.0
 40
17.0
 40
17.0
 40
17.0
 40
18.0
 40
18.0
 40
18.0
 40
19.0
 40
19.0
 40
19.0
 40
20.0
 40
20.0
 40
20.0
 40
20.0
 10
10.0524441164105
 20
-3.986664495531111
 30
0.0
 10
10.0524441164105
 20
-3.84765489270128
 30
0.0
 10
10.09981417933268
 20
-3.736895072850498
 30
0.0
 10
10.19472655995132
 20
-3.65472954552729
 30
0.0
 10
10.28946668579569
 20
-3.572564018204081
 30
0.0
 10
10.42451442881748
 20
-3.526055229153208
 30
0.0
 10
10.5998697890167
 20
-3.515203178374671
 30
0.0
 10
10.5998697890167
 20
-3.515203178374671
 30
0.0
 10
10.7922783718679
 20
-3.501595051207934
 30
0.0
 10
10.7922783718679
 20
-3.501595051207934
 30
0.0
 10
10.7922783718679
 20
-3.501595051207934
 30
0.0
 10
10.7922783718679
 20
-3.436482746536712
 30
0.0
 10
10.7922783718679
 20
-3.436482746536712
 30
0.0
 10
10.7922783718679
 20
-3.302813041709018
 30
0.0
 10
10.77057427031083
 20
-3.206178113347761
 30
0.0
 10
10.72716606719668
 20
-3.146577961452938
 30
0.0
 10
10.68393011885679
 20
-3.086977809558116
 30
0.0
 10
10.61433919005475
 20
-3.057177733610705
 30
0.0
 10
10.5185655355648
 20
-3.057177733610705
 30
0.0
 10
10.43536647959602
 20
-3.057177733610705
 30
0.0
 10
10.3716322131189
 20
-3.076125758779579
 30
0.0
 10
10.3275349909077
 20
-3.114021809117327
 30
0.0
 10
10.28309325914797
 20
-3.151917859455076
 30
0.0
 10
10.25294867365204
 20
-3.213412813866785
 30
0.0
 10
10.2365844700971
 20
-3.298334417578194
 30
0.0
 10
10.2365844700971
 20
-3.298334417578194
 30
0.0
 10
10.09843614113858
 20
-3.281970214023257
 30
0.0
 10
10.09843614113858
 20
-3.281970214023257
 30
0.0
 10
10.11824544017877
 20
-3.161047362490988
 30
0.0
 10
10.1635484458098
 20
-3.07199164419728
 30
0.0
 10
10.23400064848317
 20
-3.015147568690657
 30
0.0
 10
10.30445285115652
 20
-2.958131238409773
 30
0.0
 10
10.40281032726041
 20
-2.929709200656461
 30
0.0
 10
10.52941758634334
 20
-2.929709200656461
 30
0.0
 10
10.67393934194957
 20
-2.929709200656461
 30
0.0
 10
10.77918700902395
 20
-2.970878091705197
 30
0.0
 10
10.84516058756649
 20
-3.053043619028406
 30
0.0
 10
10.91096191133476
 20
-3.135209146351614
 30
0.0
 10
10.94403482799316
 20
-3.26491699137127
 30
0.0
 10
10.94403482799316
 20
-3.441994899313112
 30
0.0
 10
10.94403482799316
 20
-3.441994899313112
 30
0.0
 10
10.94403482799316
 20
-4.366141763231381
 30
0.0
 10
10.94403482799316
 20
-4.366141763231381
 30
0.0
 10
10.94403482799316
 20
-4.366141763231381
 30
0.0
 10
10.7950344482561
 20
-4.366141763231381
 30
0.0
 10
10.7950344482561
 20
-4.366141763231381
 30
0.0
 10
10.7950344482561
 20
-4.366141763231381
 30
0.0
 10
10.7950344482561
 20
-4.162881129601641
 30
0.0
 10
10.7950344482561
 20
-4.162881129601641
 30
0.0
 10
10.74973144262507
 20
-4.2388454850514
 30
0.0
 10
10.69460991486107
 20
-4.297067598752121
 30
0.0
 10
10.62966986496411
 20
-4.33771972547807
 30
0.0
 10
10.56455756029289
 20
-4.378371852204018
 30
0.0
 10
10.49410535761953
 20
-4.398697915566992
 30
0.0
 10
10.41831325694403
 20
-4.398697915566992
 30
0.0
 10
10.30445285115652
 20
-4.398697915566992
 30
0.0
 10
10.21505262331429
 20
-4.361663139100556
 30
0.0
 10
10.14994031864307
 20
-4.287593586167685
 30
0.0
 10
10.08482801397185
 20
-4.213524033234813
 30
0.0
 10
10.0524441164105
 20
-4.113271754614043
 30
0.0
 10
10.0524441164105
 20
-3.986664495531111
 30
0.0
  0
HATCH
  5
91
330
7D
100
AcDbEntity
  8
レイヤー 1
 62
   250
420
  4078137
440
 33554687
100
AcDbHatch
 10
0.0
 20
0.0
 30
0.0
210
0.0
220
0.0
230
1.0
  2
SOLID
 70
     1
 71
     1
 91
        2
 92
        1
 93
        1
 72
     4
 94
        3
 73
     0
 74
     0
 95
       29
 96
       25
 40
0.0
 40
0.0
 40
0.0
 40
0.0
 40
1.0
 40
1.0
 40
1.0
 40
2.0
 40
2.0
 40
2.0
 40
3.0
 40
3.0
 40
3.0
 40
4.0
 40
4.0
 40
4.0
 40
5.0
 40
5.0
 40
5.0
 40
6.0
 40
6.0
 40
6.0
 40
7.0
 40
7.0
 40
7.0
 40
8.0
 40
8.0
 40
8.0
 40
8.0
 10
10.20954047053789
 20
-3.978568521140774
 10
10.20954047053789
 20
-4.070724825371208
 10
10.23124457209497
 20
-4.142210556690142
 10
10.27465277520911
 20
-4.192681205549051
 10
10.317888723549
 20
-4.243324109182224
 10
10.37852240408939
 20
-4.268645560998811
 10
10.45620930728178
 20
-4.268645560998811
 10
10.51942680943611
 20
-4.268645560998811
 10
10.57627088494274
 20
-4.251936847895349
 10
10.62691378857591
 20
-4.218519421688426
 10
10.67755669220908
 20
-4.185101995481502
 10
10.71769205461224
 20
-4.140832518496042
 10
10.74749213055965
 20
-4.085710990732044
 10
10.77729220650706
 20
-4.030589462968046
 10
10.7922783718679
 20
-3.970472546750437
 10
10.7922783718679
 20
-3.905360242079215
 10
10.7922783718679
 20
-3.905360242079215
 10
10.7922783718679
 20
-3.620795354997579
 10
10.7922783718679
 20
-3.620795354997579
 10
10.7922783718679
 20
-3.620795354997579
 10
10.61072183979523
 20
-3.631647405776115
 10
10.61072183979523
 20
-3.631647405776115
 10
10.34321017536558
 20
-3.651628959590565
 10
10.20954047053789
 20
-3.767211913120697
 10
10.20954047053789
 20
-3.978568521140774
 97
        0
 97
        1
330
8F
 92
        1
 93
        1
 72
     4
 94
        3
 73
     0
 74
     0
 95
       65
 96
       61
 40
0.0
 40
0.0
 40
0.0
 40
0.0
 40
1.0
 40
1.0
 40
1.0
 40
2.0
 40
2.0
 40
2.0
 40
3.0
 40
3.0
 40
3.0
 40
4.0
 40
4.0
 40
4.0
 40
5.0
 40
5.0
 40
5.0
 40
6.0
 40
6.0
 40
6.0
 40
7.0
 40
7.0
 40
7.0
 40
8.0
 40
8.0
 40
8.0
 40
9.0
 40
9.0
 40
9.0
 40
10.0
 40
10.0
 40
10.0
 40
11.0
 40
11.0
 40
11.0
 40
12.0
 40
12.0
 40
12.0
 40
13.0
 40
13.0
 40
13.0
 40
14.0
 40
14.0
 40
14.0
 40
15.0
 40
15.0
 40
15.0
 40
16.0
 40
16.0
 40
16.0
 40
17.0
 40
17.0
 40
17.0
 40
18.0
 40
18.0
 40
18.0
 40
19.0
 40
19.0
 40
19.0
 40
20.0
 40
20.0
 40
20.0
 40
20.0
 10
10.0524441164105
 20
-3.986664495531111
 10
10.0524441164105
 20
-3.84765489270128
 10
10.09981417933268
 20
-3.736895072850498
 10
10.19472655995132
 20
-3.65472954552729
 10
10.28946668579569
 20
-3.572564018204081
 10
10.42451442881748
 20
-3.526055229153208
 10
10.5998697890167
 20
-3.515203178374671
 10
10.5998697890167
 20
-3.515203178374671
 10
10.7922783718679
 20
-3.501595051207934
 10
10.7922783718679
 20
-3.501595051207934
 10
10.7922783718679
 20
-3.501595051207934
 10
10.7922783718679
 20
-3.436482746536712
 10
10.7922783718679
 20
-3.436482746536712
 10
10.7922783718679
 20
-3.302813041709018
 10
10.77057427031083
 20
-3.206178113347761
 10
10.72716606719668
 20
-3.146577961452938
 10
10.68393011885679
 20
-3.086977809558116
 10
10.61433919005475
 20
-3.057177733610705
 10
10.5185655355648
 20
-3.057177733610705
 10
10.43536647959602
 20
-3.057177733610705
 10
10.3716322131189
 20
-3.076125758779579
 10
10.3275349909077
 20
-3.114021809117327
 10
10.28309325914797
 20
-3.151917859455076
 10
10.25294867365204
 20
-3.213412813866785
 10
10.2365844700971
 20
-3.298334417578194
 10
10.2365844700971
 20
-3.298334417578194
 10
10.09843614113858
 20
-3.281970214023257
 10
10.09843614113858
 20
-3.281970214023257
 10
10.11824544017877
 20
-3.161047362490988
 10
10.1635484458098
 20
-3.07199164419728
 10
10.23400064848317
 20
-3.015147568690657
 10
10.30445285115652
 20
-2.958131238409773
 10
10.40281032726041
 20
-2.929709200656461
 10
10.52941758634334
 20
-2.929709200656461
 10
10.67393934194957
 20
-2.929709200656461
 10
10.77918700902395
 20
-2.970878091705197
 10
10.84516058756649
 20
-3.053043619028406
 10
10.91096191133476
 20
-3.135209146351614
 10
10.94403482799316
 20
-3.26491699137127
 10
10.94403482799316
 20
-3.441994899313112
 10
10.94403482799316
 20
-3.441994899313112
 10
10.94403482799316
 20
-4.366141763231381
 10
10.94403482799316
 20
-4.366141763231381
 10
10.94403482799316
 20
-4.366141763231381
 10
10.7950344482561
 20
-4.366141763231381
 10
10.7950344482561
 20
-4.366141763231381
 10
10.7950344482561
 20
-4.366141763231381
 10
10.7950344482561
 20
-4.162881129601641
 10
10.7950344482561
 20
-4.162881129601641
 10
10.74973144262507
 20
-4.2388454850514
 10
10.69460991486107
 20
-4.297067598752121
 10
10.62966986496411
 20
-4.33771972547807
 10
10.56455756029289
 20
-4.378371852204018
 10
10.49410535761953
 20
-4.398697915566992
 10
10.41831325694403
 20
-4.398697915566992
 10
10.30445285115652
 20
-4.398697915566992
 10
10.21505262331429
 20
-4.361663139100556
 10
10.14994031864307
 20
-4.287593586167685
 10
10.08482801397185
 20
-4.213524033234813
 10
10.0524441164105
 20
-4.113271754614043
 10
10.0524441164105
 20
-3.986664495531111
 97
        0
 97
        1
330
90
 75
     2
 76
     1
 98
        1
 10
0.0
 20
0.0
450
        0
451
        0
460
0.0
461
0.0
452
        0
462
0.0
453
        0
470

  0
SPLINE
  5
92
330
7D
100
AcDbEntity
  8
レイヤー 1
100
AcDbSpline
210
0.0
220
0.0
230
1.0
 70
    11
 71
     3
 72
    17
 73
    13
 74
     0
 42
0.0000000001
 43
0.0000000001
 40
0.0
 40
0.0
 40
0.0
 40
0.0
 40
1.0
 40
1.0
 40
1.0
 40
2.0
 40
2.0
 40
2.0
 40
3.0
 40
3.0
 40
3.0
 40
4.0
 40
4.0
 40
4.0
 40
4.0
 10
11.31799994291703
 20
-2.973117403770609
 30
0.0
 10
11.31799994291703
 20
-2.973117403770609
 30
0.0
 10
11.46975639904228
 20
-2.973117403770609
 30
0.0
 10
11.46975639904228
 20
-2.973117403770609
 30
0.0
 10
11.46975639904228
 20
-2.973117403770609
 30
0.0
 10
11.46975639904228
 20
-4.366141763231381
 30
0.0
 10
11.46975639904228
 20
-4.366141763231381
 30
0.0
 10
11.46975639904228
 20
-4.366141763231381
 30
0.0
 10
11.31799994291703
 20
-4.366141763231381
 30
0.0
 10
11.31799994291703
 20
-4.366141763231381
 30
0.0
 10
11.31799994291703
 20
-4.366141763231381
 30
0.0
 10
11.31799994291703
 20
-2.973117403770609
 30
0.0
 10
11.31799994291703
 20
-2.973117403770609
 30
0.0
  0
SPLINE
  5
93
330
7D
100
AcDbEntity
  8
レイヤー 1
100
AcDbSpline
210
0.0
220
0.0
230
1.0
 70
    11
 71
     3
 72
    17
 73
    13
 74
     0
 42
0.0000000001
 43
0.0000000001
 40
0.0
 40
0.0
 40
0.0
 40
0.0
 40
1.0
 40
1.0
 40
1.0
 40
2.0
 40
2.0
 40
2.0
 40
3.0
 40
3.0
 40
3.0
 40
4.0
 40
4.0
 40
4.0
 40
4.0
 10
11.31524386652883
 20
-2.431031629166547
 30
0.0
 10
11.31524386652883
 20
-2.431031629166547
 30
0.0
 10
11.47526855181868
 20
-2.431031629166547
 30
0.0
 10
11.47526855181868
 20
-2.431031629166547
 30
0.0
 10
11.47526855181868
 20
-2.431031629166547
 30
0.0
 10
11.47526855181868
 20
-2.69389241469111
 30
0.0
 10
11.47526855181868
 20
-2.69389241469111
 30
0.0
 10
11.47526855181868
 20
-2.69389241469111
 30
0.0
 10
11.31524386652883
 20
-2.69389241469111
 30
0.0
 10
11.31524386652883
 20
-2.69389241469111
 30
0.0
 10
11.31524386652883
 20
-2.69389241469111
 30
0.0
 10
11.31524386652883
 20
-2.431031629166547
 30
0.0
 10
11.31524386652883
 20
-2.431031629166547
 30
0.0
  0
HATCH
  5
94
330
7D
100
AcDbEntity
  8
レイヤー 1
 62
   250
420
  4078137
440
 33554687
100
AcDbHatch
 10
0.0
 20
0.0
 30
0.0
210
0.0
220
0.0
230
1.0
  2
SOLID
 70
     1
 71
     1
 91
        2
 92
        1
 93
        1
 72
     4
 94
        3
 73
     0
 74
     0
 95
       17
 96
       13
 40
0.0
 40
0.0
 40
0.0
 40
0.0
 40
1.0
 40
1.0
 40
1.0
 40
2.0
 40
2.0
 40
2.0
 40
3.0
 40
3.0
 40
3.0
 40
4.0
 40
4.0
 40
4.0
 40
4.0
 10
11.31799994291703
 20
-2.973117403770609
 10
11.31799994291703
 20
-2.973117403770609
 10
11.46975639904228
 20
-2.973117403770609
 10
11.46975639904228
 20
-2.973117403770609
 10
11.46975639904228
 20
-2.973117403770609
 10
11.46975639904228
 20
-4.366141763231381
 10
11.46975639904228
 20
-4.366141763231381
 10
11.46975639904228
 20
-4.366141763231381
 10
11.31799994291703
 20
-4.366141763231381
 10
11.31799994291703
 20
-4.366141763231381
 10
11.31799994291703
 20
-4.366141763231381
 10
11.31799994291703
 20
-2.973117403770609
 10
11.31799994291703
 20
-2.973117403770609
 97
        0
 97
        1
330
92
 92
        1
 93
        1
 72
     4
 94
        3
 73
     0
 74
     0
 95
       17
 96
       13
 40
0.0
 40
0.0
 40
0.0
 40
0.0
 40
1.0
 40
1.0
 40
1.0
 40
2.0
 40
2.0
 40
2.0
 40
3.0
 40
3.0
 40
3.0
 40
4.0
 40
4.0
 40
4.0
 40
4.0
 10
11.31524386652883
 20
-2.431031629166547
 10
11.31524386652883
 20
-2.431031629166547
 10
11.47526855181868
 20
-2.431031629166547
 10
11.47526855181868
 20
-2.431031629166547
 10
11.47526855181868
 20
-2.431031629166547
 10
11.47526855181868
 20
-2.69389241469111
 10
11.47526855181868
 20
-2.69389241469111
 10
11.47526855181868
 20
-2.69389241469111
 10
11.31524386652883
 20
-2.69389241469111
 10
11.31524386652883
 20
-2.69389241469111
 10
11.31524386652883
 20
-2.69389241469111
 10
11.31524386652883
 20
-2.431031629166547
 10
11.31524386652883
 20
-2.431031629166547
 97
        0
 97
        1
330
93
 75
     2
 76
     1
 98
        1
 10
0.0
 20
0.0
450
        0
451
        0
460
0.0
461
0.0
452
        0
462
0.0
453
        0
470

  0
SPLINE
  5
95
330
7D
100
AcDbEntity
  8
レイヤー 1
100
AcDbSpline
210
0.0
220
0.0
230
1.0
 70
     9
 71
     3
 72
    32
 73
    28
 74
     0
 42
0.0000000001
 43
0.0000000001
 40
0.0
 40
0.0
 40
0.0
 40
0.0
 40
1.0
 40
1.0
 40
1.0
 40
2.0
 40
2.0
 40
2.0
 40
3.0
 40
3.0
 40
3.0
 40
4.0
 40
4.0
 40
4.0
 40
5.0
 40
5.0
 40
5.0
 40
6.0
 40
6.0
 40
6.0
 40
7.0
 40
7.0
 40
7.0
 40
8.0
 40
8.0
 40
8.0
 40
9.0
 40
9.0
 40
9.0
 40
9.0
 10
12.58252224077798
 20
-3.306430391968531
 30
0.0
 10
12.55978461057533
 20
-3.232360839035659
 30
0.0
 10
12.52464463662578
 20
-3.173277451463625
 30
0.0
 10
12.47675780938081
 20
-3.129007974478164
 30
0.0
 10
12.42887098213584
 20
-3.084738497492704
 30
0.0
 10
12.36599798953003
 20
-3.062517631612843
 30
0.0
 10
12.28831108633764
 20
-3.062517631612843
 30
0.0
 10
12.0643798797964
 20
-3.062517631612843
 30
0.0
 10
11.95241427652578
 20
-3.253203666721421
 30
0.0
 10
11.95241427652578
 20
-3.634403482164315
 30
0.0
 10
11.95241427652578
 20
-4.017498100124098
 30
0.0
 10
12.0643798797964
 20
-4.208873154329726
 30
0.0
 10
12.28831108633764
 20
-4.208873154329726
 30
0.0
 10
12.3642754417874
 20
-4.208873154329726
 30
0.0
 10
12.42611490574764
 20
-4.186824543224127
 30
0.0
 10
12.47400173299261
 20
-4.142555066238666
 30
0.0
 10
12.52188856023758
 20
-4.098285589253206
 30
0.0
 10
12.55754529850992
 20
-4.039546711229696
 30
0.0
 10
12.58114420258388
 20
-3.966338432168137
 30
0.0
 10
12.60457085188358
 20
-3.893130153106578
 30
0.0
 10
12.61628417653343
 20
-3.812342663977469
 30
0.0
 10
12.61628417653343
 20
-3.723803710006549
 30
0.0
 10
12.61628417653343
 20
-3.723803710006549
 30
0.0
 10
12.61628417653343
 20
-3.54758707593602
 30
0.0
 10
12.61628417653343
 20
-3.54758707593602
 30
0.0
 10
12.61628417653343
 20
-3.460942924481986
 30
0.0
 10
12.60508761620636
 20
-3.380499944901402
 30
0.0
 10
12.58252224077798
 20
-3.306430391968531
 30
0.0
  0
SPLINE
  5
96
330
7D
100
AcDbEntity
  8
レイヤー 1
100
AcDbSpline
210
0.0
220
0.0
230
1.0
 70
     9
 71
     3
 72
    62
 73
    58
 74
     0
 42
0.0000000001
 43
0.0000000001
 40
0.0
 40
0.0
 40
0.0
 40
0.0
 40
1.0
 40
1.0
 40
1.0
 40
2.0
 40
2.0
 40
2.0
 40
3.0
 40
3.0
 40
3.0
 40
4.0
 40
4.0
 40
4.0
 40
5.0
 40
5.0
 40
5.0
 40
6.0
 40
6.0
 40
6.0
 40
7.0
 40
7.0
 40
7.0
 40
8.0
 40
8.0
 40
8.0
 40
9.0
 40
9.0
 40
9.0
 40
10.0
 40
10.0
 40
10.0
 40
11.0
 40
11.0
 40
11.0
 40
12.0
 40
12.0
 40
12.0
 40
13.0
 40
13.0
 40
13.0
 40
14.0
 40
14.0
 40
14.0
 40
15.0
 40
15.0
 40
15.0
 40
16.0
 40
16.0
 40
16.0
 40
17.0
 40
17.0
 40
17.0
 40
18.0
 40
18.0
 40
18.0
 40
19.0
 40
19.0
 40
19.0
 40
19.0
 10
12.61094427853129
 20
-4.40403781356913
 30
0.0
 10
12.61094427853129
 20
-4.40403781356913
 30
0.0
 10
12.61094427853129
 20
-4.095185003316482
 30
0.0
 10
12.61094427853129
 20
-4.095185003316482
 30
0.0
 10
12.56925862315977
 20
-4.17459445425149
 30
0.0
 10
12.51740993610676
 20
-4.235572644340412
 30
0.0
 10
12.45505370782373
 20
-4.278119573583247
 30
0.0
 10
12.39269747954071
 20
-4.32049424805182
 30
0.0
 10
12.32362331506145
 20
-4.341681585286107
 30
0.0
 10
12.2476589596117
 20
-4.341681585286107
 30
0.0
 10
12.09951985374595
 20
-4.341681585286107
 30
0.0
 10
11.98565944795844
 20
-4.280703395197185
 30
0.0
 10
11.90624999702344
 20
-4.158747015019341
 30
0.0
 10
11.82666829131417
 20
-4.036790634841496
 30
0.0
 10
11.78704969323379
 20
-3.863846841481955
 30
0.0
 10
11.78704969323379
 20
-3.639743380166453
 30
0.0
 10
11.78704969323379
 20
-3.415812173625213
 30
0.0
 10
11.82856309383105
 20
-3.241318087297309
 30
0.0
 10
11.91176214979984
 20
-3.116777885505527
 30
0.0
 10
11.99478895099436
 20
-2.992065428939483
 30
0.0
 10
12.11037190452449
 20
-2.929709200656461
 30
0.0
 10
12.25851101039023
 20
-2.929709200656461
 30
0.0
 10
12.41216226903238
 20
-2.929709200656461
 30
0.0
 10
12.5296400250794
 20
-3.010152180237045
 30
0.0
 10
12.61094427853129
 20
-3.17086588462395
 30
0.0
 10
12.61094427853129
 20
-3.17086588462395
 30
0.0
 10
12.61094427853129
 20
-2.973117403770609
 30
0.0
 10
12.61094427853129
 20
-2.973117403770609
 30
0.0
 10
12.61094427853129
 20
-2.973117403770609
 30
0.0
 10
12.76270073465655
 20
-2.973117403770609
 30
0.0
 10
12.76270073465655
 20
-2.973117403770609
 30
0.0
 10
12.76270073465655
 20
-2.973117403770609
 30
0.0
 10
12.76270073465655
 20
-4.374237737621718
 30
0.0
 10
12.76270073465655
 20
-4.374237737621718
 30
0.0
 10
12.76270073465655
 20
-4.55131564556356
 30
0.0
 10
12.72239311747912
 20
-4.686880152908141
 30
0.0
 10
12.6421223926728
 20
-4.780759004881199
 30
0.0
 10
12.56167941309222
 20
-4.874810111628519
 30
0.0
 10
12.4455796952393
 20
-4.921663410227917
 30
0.0
 10
12.29382323911404
 20
-4.921663410227917
 30
0.0
 10
12.14930148350781
 20
-4.921663410227917
 30
0.0
 10
12.03940293752834
 20
-4.888762748343781
 30
0.0
 10
11.96447211072416
 20
-4.822789169801247
 30
0.0
 10
11.88954128391997
 20
-4.756815591258712
 30
0.0
 10
11.84475504261173
 20
-4.655185274443843
 30
0.0
 10
11.83028564157368
 20
-4.517898219356636
 30
0.0
 10
11.83028564157368
 20
-4.517898219356636
 30
0.0
 10
11.98221435247319
 20
-4.517898219356636
 30
0.0
 10
11.98221435247319
 20
-4.517898219356636
 30
0.0
 10
11.99840630125387
 20
-4.617289224106094
 30
0.0
 10
12.03096245358948
 20
-4.687741426779453
 30
0.0
 10
12.07971055470577
 20
-4.729254827376713
 30
0.0
 10
12.12845865582205
 20
-4.770768227973975
 30
0.0
 10
12.20252820875492
 20
-4.791611055659735
 30
0.0
 10
12.30191921350438
 20
-4.791611055659735
 30
0.0
 10
12.50793592352232
 20
-4.791611055659735
 30
0.0
 10
12.61094427853129
 20
-4.662419974962867
 30
0.0
 10
12.61094427853129
 20
-4.40403781356913
 30
0.0
  0
HATCH
  5
97
330
7D
100
AcDbEntity
  8
レイヤー 1
 62
   250
420
  4078137
440
 33554687
100
AcDbHatch
 10
0.0
 20
0.0
 30
0.0
210
0.0
220
0.0
230
1.0
  2
SOLID
 70
     1
 71
     1
 91
        2
 92
        1
 93
        1
 72
     4
 94
        3
 73
     0
 74
     0
 95
       32
 96
       28
 40
0.0
 40
0.0
 40
0.0
 40
0.0
 40
1.0
 40
1.0
 40
1.0
 40
2.0
 40
2.0
 40
2.0
 40
3.0
 40
3.0
 40
3.0
 40
4.0
 40
4.0
 40
4.0
 40
5.0
 40
5.0
 40
5.0
 40
6.0
 40
6.0
 40
6.0
 40
7.0
 40
7.0
 40
7.0
 40
8.0
 40
8.0
 40
8.0
 40
9.0
 40
9.0
 40
9.0
 40
9.0
 10
12.58252224077798
 20
-3.306430391968531
 10
12.55978461057533
 20
-3.232360839035659
 10
12.52464463662578
 20
-3.173277451463625
 10
12.47675780938081
 20
-3.129007974478164
 10
12.42887098213584
 20
-3.084738497492704
 10
12.36599798953003
 20
-3.062517631612843
 10
12.28831108633764
 20
-3.062517631612843
 10
12.0643798797964
 20
-3.062517631612843
 10
11.95241427652578
 20
-3.253203666721421
 10
11.95241427652578
 20
-3.634403482164315
 10
11.95241427652578
 20
-4.017498100124098
 10
12.0643798797964
 20
-4.208873154329726
 10
12.28831108633764
 20
-4.208873154329726
 10
12.3642754417874
 20
-4.208873154329726
 10
12.42611490574764
 20
-4.186824543224127
 10
12.47400173299261
 20
-4.142555066238666
 10
12.52188856023758
 20
-4.098285589253206
 10
12.55754529850992
 20
-4.039546711229696
 10
12.58114420258388
 20
-3.966338432168137
 10
12.60457085188358
 20
-3.893130153106578
 10
12.61628417653343
 20
-3.812342663977469
 10
12.61628417653343
 20
-3.723803710006549
 10
12.61628417653343
 20
-3.723803710006549
 10
12.61628417653343
 20
-3.54758707593602
 10
12.61628417653343
 20
-3.54758707593602
 10
12.61628417653343
 20
-3.460942924481986
 10
12.60508761620636
 20
-3.380499944901402
 10
12.58252224077798
 20
-3.306430391968531
 97
        0
 97
        1
330
95
 92
        1
 93
        1
 72
     4
 94
        3
 73
     0
 74
     0
 95
       62
 96
       58
 40
0.0
 40
0.0
 40
0.0
 40
0.0
 40
1.0
 40
1.0
 40
1.0
 40
2.0
 40
2.0
 40
2.0
 40
3.0
 40
3.0
 40
3.0
 40
4.0
 40
4.0
 40
4.0
 40
5.0
 40
5.0
 40
5.0
 40
6.0
 40
6.0
 40
6.0
 40
7.0
 40
7.0
 40
7.0
 40
8.0
 40
8.0
 40
8.0
 40
9.0
 40
9.0
 40
9.0
 40
10.0
 40
10.0
 40
10.0
 40
11.0
 40
11.0
 40
11.0
 40
12.0
 40
12.0
 40
12.0
 40
13.0
 40
13.0
 40
13.0
 40
14.0
 40
14.0
 40
14.0
 40
15.0
 40
15.0
 40
15.0
 40
16.0
 40
16.0
 40
16.0
 40
17.0
 40
17.0
 40
17.0
 40
18.0
 40
18.0
 40
18.0
 40
19.0
 40
19.0
 40
19.0
 40
19.0
 10
12.61094427853129
 20
-4.40403781356913
 10
12.61094427853129
 20
-4.40403781356913
 10
12.61094427853129
 20
-4.095185003316482
 10
12.61094427853129
 20
-4.095185003316482
 10
12.56925862315977
 20
-4.17459445425149
 10
12.51740993610676
 20
-4.235572644340412
 10
12.45505370782373
 20
-4.278119573583247
 10
12.39269747954071
 20
-4.32049424805182
 10
12.32362331506145
 20
-4.341681585286107
 10
12.2476589596117
 20
-4.341681585286107
 10
12.09951985374595
 20
-4.341681585286107
 10
11.98565944795844
 20
-4.280703395197185
 10
11.90624999702344
 20
-4.158747015019341
 10
11.82666829131417
 20
-4.036790634841496
 10
11.78704969323379
 20
-3.863846841481955
 10
11.78704969323379
 20
-3.639743380166453
 10
11.78704969323379
 20
-3.415812173625213
 10
11.82856309383105
 20
-3.241318087297309
 10
11.91176214979984
 20
-3.116777885505527
 10
11.99478895099436
 20
-2.992065428939483
 10
12.11037190452449
 20
-2.929709200656461
 10
12.25851101039023
 20
-2.929709200656461
 10
12.41216226903238
 20
-2.929709200656461
 10
12.5296400250794
 20
-3.010152180237045
 10
12.61094427853129
 20
-3.17086588462395
 10
12.61094427853129
 20
-3.17086588462395
 10
12.61094427853129
 20
-2.973117403770609
 10
12.61094427853129
 20
-2.973117403770609
 10
12.61094427853129
 20
-2.973117403770609
 10
12.76270073465655
 20
-2.973117403770609
 10
12.76270073465655
 20
-2.973117403770609
 10
12.76270073465655
 20
-2.973117403770609
 10
12.76270073465655
 20
-4.374237737621718
 10
12.76270073465655
 20
-4.374237737621718
 10
12.76270073465655
 20
-4.55131564556356
 10
12.72239311747912
 20
-4.686880152908141
 10
12.6421223926728
 20
-4.780759004881199
 10
12.56167941309222
 20
-4.874810111628519
 10
12.4455796952393
 20
-4.921663410227917
 10
12.29382323911404
 20
-4.921663410227917
 10
12.14930148350781
 20
-4.921663410227917
 10
12.03940293752834
 20
-4.888762748343781
 10
11.96447211072416
 20
-4.822789169801247
 10
11.88954128391997
 20
-4.756815591258712
 10
11.84475504261173
 20
-4.655185274443843
 10
11.83028564157368
 20
-4.517898219356636
 10
11.83028564157368
 20
-4.517898219356636
 10
11.98221435247319
 20
-4.517898219356636
 10
11.98221435247319
 20
-4.517898219356636
 10
11.99840630125387
 20
-4.617289224106094
 10
12.03096245358948
 20
-4.687741426779453
 10
12.07971055470577
 20
-4.729254827376713
 10
12.12845865582205
 20
-4.770768227973975
 10
12.20252820875492
 20
-4.791611055659735
 10
12.30191921350438
 20
-4.791611055659735
 10
12.50793592352232
 20
-4.791611055659735
 10
12.61094427853129
 20
-4.662419974962867
 10
12.61094427853129
 20
-4.40403781356913
 97
        0
 97
        1
330
96
 75
     2
 76
     1
 98
        1
 10
0.0
 20
0.0
450
        0
451
        0
460
0.0
461
0.0
452
        0
462
0.0
453
        0
470

  0
SPLINE
  5
98
330
7D
100
AcDbEntity
  8
レイヤー 1
100
AcDbSpline
210
0.0
220
0.0
230
1.0
 70
    11
 71
     3
 72
    56
 73
    52
 74
     0
 42
0.0000000001
 43
0.0000000001
 40
0.0
 40
0.0
 40
0.0
 40
0.0
 40
1.0
 40
1.0
 40
1.0
 40
2.0
 40
2.0
 40
2.0
 40
3.0
 40
3.0
 40
3.0
 40
4.0
 40
4.0
 40
4.0
 40
5.0
 40
5.0
 40
5.0
 40
6.0
 40
6.0
 40
6.0
 40
7.0
 40
7.0
 40
7.0
 40
8.0
 40
8.0
 40
8.0
 40
9.0
 40
9.0
 40
9.0
 40
10.0
 40
10.0
 40
10.0
 40
11.0
 40
11.0
 40
11.0
 40
12.0
 40
12.0
 40
12.0
 40
13.0
 40
13.0
 40
13.0
 40
14.0
 40
14.0
 40
14.0
 40
15.0
 40
15.0
 40
15.0
 40
16.0
 40
16.0
 40
16.0
 40
17.0
 40
17.0
 40
17.0
 40
17.0
 10
13.14734564558469
 20
-2.431031629166547
 30
0.0
 10
13.14734564558469
 20
-2.431031629166547
 30
0.0
 10
13.29910210170994
 20
-2.431031629166547
 30
0.0
 10
13.29910210170994
 20
-2.431031629166547
 30
0.0
 10
13.29910210170994
 20
-2.431031629166547
 30
0.0
 10
13.29910210170994
 20
-3.157430012231476
 30
0.0
 10
13.29910210170994
 20
-3.157430012231476
 30
0.0
 10
13.34423285256672
 20
-3.085083007041229
 30
0.0
 10
13.40073241852482
 20
-3.029100205405919
 30
0.0
 10
13.46860079958424
 20
-2.989309352551283
 30
0.0
 10
13.5362969258694
 20
-2.94969075447091
 30
0.0
 10
13.60898844060817
 20
-2.929709200656461
 30
0.0
 10
13.68667534380055
 20
-2.929709200656461
 30
0.0
 10
13.80225829733068
 20
-2.929709200656461
 30
0.0
 10
13.89303656336702
 20
-2.966743977122897
 30
0.0
 10
13.95901014190955
 20
-3.040813530055769
 30
0.0
 10
14.02498372045209
 20
-3.11488308298864
 30
0.0
 10
14.05805663711048
 20
-3.21789143799761
 30
0.0
 10
14.05805663711048
 20
-3.349838595082679
 30
0.0
 10
14.05805663711048
 20
-3.349838595082679
 30
0.0
 10
14.05805663711048
 20
-4.366141763231381
 30
0.0
 10
14.05805663711048
 20
-4.366141763231381
 30
0.0
 10
14.05805663711048
 20
-4.366141763231381
 30
0.0
 10
13.90354410459703
 20
-4.366141763231381
 30
0.0
 10
13.90354410459703
 20
-4.366141763231381
 30
0.0
 10
13.90354410459703
 20
-4.366141763231381
 30
0.0
 10
13.90354410459703
 20
-3.37412651825369
 30
0.0
 10
13.90354410459703
 20
-3.37412651825369
 30
0.0
 10
13.90354410459703
 20
-3.170004610752637
 30
0.0
 10
13.81862250088562
 20
-3.068029784389242
 30
0.0
 10
13.6487792934628
 20
-3.068029784389242
 30
0.0
 10
13.59813638982963
 20
-3.068029784389242
 30
0.0
 10
13.54852701484203
 20
-3.080087618587616
 30
0.0
 10
13.49960665895149
 20
-3.10454779653289
 30
0.0
 10
13.4508585578352
 20
-3.129007974478164
 30
0.0
 10
13.40934515723794
 20
-3.160013833845413
 30
0.0
 10
13.3750664571597
 20
-3.198082138957424
 30
0.0
 10
13.35146755308574
 20
-3.225126138516635
 30
0.0
 10
13.33303629223966
 20
-3.254064940592733
 30
0.0
 10
13.31942816507292
 20
-3.284726290411457
 30
0.0
 10
13.30599229268045
 20
-3.315559895004443
 30
0.0
 10
13.29910210170994
 20
-3.347082518694479
 30
0.0
 10
13.29910210170994
 20
-3.37963867103009
 30
0.0
 10
13.29910210170994
 20
-3.37963867103009
 30
0.0
 10
13.29910210170994
 20
-4.366141763231381
 30
0.0
 10
13.29910210170994
 20
-4.366141763231381
 30
0.0
 10
13.29910210170994
 20
-4.366141763231381
 30
0.0
 10
13.14734564558469
 20
-4.366141763231381
 30
0.0
 10
13.14734564558469
 20
-4.366141763231381
 30
0.0
 10
13.14734564558469
 20
-4.366141763231381
 30
0.0
 10
13.14734564558469
 20
-2.431031629166547
 30
0.0
 10
13.14734564558469
 20
-2.431031629166547
 30
0.0
  0
HATCH
  5
99
330
7D
100
AcDbEntity
  8
レイヤー 1
 62
   250
420
  4078137
440
 33554687
100
AcDbHatch
 10
0.0
 20
0.0
 30
0.0
210
0.0
220
0.0
230
1.0
  2
SOLID
 70
     1
 71
     1
 91
        1
 92
        1
 93
        1
 72
     4
 94
        3
 73
     0
 74
     0
 95
       56
 96
       52
 40
0.0
 40
0.0
 40
0.0
 40
0.0
 40
1.0
 40
1.0
 40
1.0
 40
2.0
 40
2.0
 40
2.0
 40
3.0
 40
3.0
 40
3.0
 40
4.0
 40
4.0
 40
4.0
 40
5.0
 40
5.0
 40
5.0
 40
6.0
 40
6.0
 40
6.0
 40
7.0
 40
7.0
 40
7.0
 40
8.0
 40
8.0
 40
8.0
 40
9.0
 40
9.0
 40
9.0
 40
10.0
 40
10.0
 40
10.0
 40
11.0
 40
11.0
 40
11.0
 40
12.0
 40
12.0
 40
12.0
 40
13.0
 40
13.0
 40
13.0
 40
14.0
 40
14.0
 40
14.0
 40
15.0
 40
15.0
 40
15.0
 40
16.0
 40
16.0
 40
16.0
 40
17.0
 40
17.0
 40
17.0
 40
17.0
 10
13.14734564558469
 20
-2.431031629166547
 10
13.14734564558469
 20
-2.431031629166547
 10
13.29910210170994
 20
-2.431031629166547
 10
13.29910210170994
 20
-2.431031629166547
 10
13.29910210170994
 20
-2.431031629166547
 10
13.29910210170994
 20
-3.157430012231476
 10
13.29910210170994
 20
-3.157430012231476
 10
13.34423285256672
 20
-3.085083007041229
 10
13.40073241852482
 20
-3.029100205405919
 10
13.46860079958424
 20
-2.989309352551283
 10
13.5362969258694
 20
-2.94969075447091
 10
13.60898844060817
 20
-2.929709200656461
 10
13.68667534380055
 20
-2.929709200656461
 10
13.80225829733068
 20
-2.929709200656461
 10
13.89303656336702
 20
-2.966743977122897
 10
13.95901014190955
 20
-3.040813530055769
 10
14.02498372045209
 20
-3.11488308298864
 10
14.05805663711048
 20
-3.21789143799761
 10
14.05805663711048
 20
-3.349838595082679
 10
14.05805663711048
 20
-3.349838595082679
 10
14.05805663711048
 20
-4.366141763231381
 10
14.05805663711048
 20
-4.366141763231381
 10
14.05805663711048
 20
-4.366141763231381
 10
13.90354410459703
 20
-4.366141763231381
 10
13.90354410459703
 20
-4.366141763231381
 10
13.90354410459703
 20
-4.366141763231381
 10
13.90354410459703
 20
-3.37412651825369
 10
13.90354410459703
 20
-3.37412651825369
 10
13.90354410459703
 20
-3.170004610752637
 10
13.81862250088562
 20
-3.068029784389242
 10
13.6487792934628
 20
-3.068029784389242
 10
13.59813638982963
 20
-3.068029784389242
 10
13.54852701484203
 20
-3.080087618587616
 10
13.49960665895149
 20
-3.10454779653289
 10
13.4508585578352
 20
-3.129007974478164
 10
13.40934515723794
 20
-3.160013833845413
 10
13.3750664571597
 20
-3.198082138957424
 10
13.35146755308574
 20
-3.225126138516635
 10
13.33303629223966
 20
-3.254064940592733
 10
13.31942816507292
 20
-3.284726290411457
 10
13.30599229268045
 20
-3.315559895004443
 10
13.29910210170994
 20
-3.347082518694479
 10
13.29910210170994
 20
-3.37963867103009
 10
13.29910210170994
 20
-3.37963867103009
 10
13.29910210170994
 20
-4.366141763231381
 10
13.29910210170994
 20
-4.366141763231381
 10
13.29910210170994
 20
-4.366141763231381
 10
13.14734564558469
 20
-4.366141763231381
 10
13.14734564558469
 20
-4.366141763231381
 10
13.14734564558469
 20
-4.366141763231381
 10
13.14734564558469
 20
-2.431031629166547
 10
13.14734564558469
 20
-2.431031629166547
 97
        0
 97
        1
330
98
 75
     2
 76
     1
 98
        1
 10
0.0
 20
0.0
450
        0
451
        0
460
0.0
461
0.0
452
        0
462
0.0
453
        0
470

  0
SPLINE
  5
9A
330
7D
100
AcDbEntity
  8
レイヤー 1
100
AcDbSpline
210
0.0
220
0.0
230
1.0
 70
     9
 71
     3
 72
    56
 73
    52
 74
     0
 42
0.0000000001
 43
0.0000000001
 40
0.0
 40
0.0
 40
0.0
 40
0.0
 40
1.0
 40
1.0
 40
1.0
 40
2.0
 40
2.0
 40
2.0
 40
3.0
 40
3.0
 40
3.0
 40
4.0
 40
4.0
 40
4.0
 40
5.0
 40
5.0
 40
5.0
 40
6.0
 40
6.0
 40
6.0
 40
7.0
 40
7.0
 40
7.0
 40
8.0
 40
8.0
 40
8.0
 40
9.0
 40
9.0
 40
9.0
 40
10.0
 40
10.0
 40
10.0
 40
11.0
 40
11.0
 40
11.0
 40
12.0
 40
12.0
 40
12.0
 40
13.0
 40
13.0
 40
13.0
 40
14.0
 40
14.0
 40
14.0
 40
15.0
 40
15.0
 40
15.0
 40
16.0
 40
16.0
 40
16.0
 40
17.0
 40
17.0
 40
17.0
 40
17.0
 10
14.45648192997963
 20
-4.030072698645259
 30
0.0
 10
14.45648192997963
 20
-4.030072698645259
 30
0.0
 10
14.45648192997963
 20
-3.097829860336653
 30
0.0
 10
14.45648192997963
 20
-3.097829860336653
 30
0.0
 10
14.45648192997963
 20
-3.097829860336653
 30
0.0
 10
14.2802652959091
 20
-3.097829860336653
 30
0.0
 10
14.2802652959091
 20
-3.097829860336653
 30
0.0
 10
14.2802652959091
 20
-3.097829860336653
 30
0.0
 10
14.2802652959091
 20
-2.973117403770609
 30
0.0
 10
14.2802652959091
 20
-2.973117403770609
 30
0.0
 10
14.2802652959091
 20
-2.973117403770609
 30
0.0
 10
14.45648192997963
 20
-2.973117403770609
 30
0.0
 10
14.45648192997963
 20
-2.973117403770609
 30
0.0
 10
14.45648192997963
 20
-2.973117403770609
 30
0.0
 10
14.45648192997963
 20
-2.588300238068202
 30
0.0
 10
14.45648192997963
 20
-2.588300238068202
 30
0.0
 10
14.45648192997963
 20
-2.588300238068202
 30
0.0
 10
14.60823838610488
 20
-2.588300238068202
 30
0.0
 10
14.60823838610488
 20
-2.588300238068202
 30
0.0
 10
14.60823838610488
 20
-2.588300238068202
 30
0.0
 10
14.60823838610488
 20
-2.973117403770609
 30
0.0
 10
14.60823838610488
 20
-2.973117403770609
 30
0.0
 10
14.60823838610488
 20
-2.973117403770609
 30
0.0
 10
14.91175129835539
 20
-2.973117403770609
 30
0.0
 10
14.91175129835539
 20
-2.973117403770609
 30
0.0
 10
14.91175129835539
 20
-2.973117403770609
 30
0.0
 10
14.91175129835539
 20
-3.097829860336653
 30
0.0
 10
14.91175129835539
 20
-3.097829860336653
 30
0.0
 10
14.91175129835539
 20
-3.097829860336653
 30
0.0
 10
14.60823838610488
 20
-3.097829860336653
 30
0.0
 10
14.60823838610488
 20
-3.097829860336653
 30
0.0
 10
14.60823838610488
 20
-3.097829860336653
 30
0.0
 10
14.60823838610488
 20
-4.040924749423797
 30
0.0
 10
14.60823838610488
 20
-4.040924749423797
 30
0.0
 10
14.60823838610488
 20
-4.190958657806427
 30
0.0
 10
14.66335991386888
 20
-4.26588948461061
 30
0.0
 10
14.77360296939688
 20
-4.26588948461061
 30
0.0
 10
14.81873372025365
 20
-4.26588948461061
 30
0.0
 10
14.86386447111042
 20
-4.255037433832074
 30
0.0
 10
14.90899522196719
 20
-4.233333332275
 30
0.0
 10
14.90899522196719
 20
-4.233333332275
 30
0.0
 10
14.93879529791461
 20
-4.349949814450707
 30
0.0
 10
14.93879529791461
 20
-4.349949814450707
 30
0.0
 10
14.87385524801765
 20
-4.38061116426943
 30
0.0
 10
14.80788166947511
 20
-4.395941839178792
 30
0.0
 10
14.74104681706126
 20
-4.395941839178792
 30
0.0
 10
14.64889051283083
 20
-4.395941839178792
 30
0.0
 10
14.57843831015747
 20
-4.364419215488756
 30
0.0
 10
14.52969020904119
 20
-4.301029458560159
 30
0.0
 10
14.48076985315064
 20
-4.237811956405825
 30
0.0
 10
14.45648192997963
 20
-4.147550454692279
 30
0.0
 10
14.45648192997963
 20
-4.030072698645259
 30
0.0
  0
HATCH
  5
9B
330
7D
100
AcDbEntity
  8
レイヤー 1
 62
   250
420
  4078137
440
 33554687
100
AcDbHatch
 10
0.0
 20
0.0
 30
0.0
210
0.0
220
0.0
230
1.0
  2
SOLID
 70
     1
 71
     1
 91
        1
 92
        1
 93
        1
 72
     4
 94
        3
 73
     0
 74
     0
 95
       56
 96
       52
 40
0.0
 40
0.0
 40
0.0
 40
0.0
 40
1.0
 40
1.0
 40
1.0
 40
2.0
 40
2.0
 40
2.0
 40
3.0
 40
3.0
 40
3.0
 40
4.0
 40
4.0
 40
4.0
 40
5.0
 40
5.0
 40
5.0
 40
6.0
 40
6.0
 40
6.0
 40
7.0
 40
7.0
 40
7.0
 40
8.0
 40
8.0
 40
8.0
 40
9.0
 40
9.0
 40
9.0
 40
10.0
 40
10.0
 40
10.0
 40
11.0
 40
11.0
 40
11.0
 40
12.0
 40
12.0
 40
12.0
 40
13.0
 40
13.0
 40
13.0
 40
14.0
 40
14.0
 40
14.0
 40
15.0
 40
15.0
 40
15.0
 40
16.0
 40
16.0
 40
16.0
 40
17.0
 40
17.0
 40
17.0
 40
17.0
 10
14.45648192997963
 20
-4.030072698645259
 10
14.45648192997963
 20
-4.030072698645259
 10
14.45648192997963
 20
-3.097829860336653
 10
14.45648192997963
 20
-3.097829860336653
 10
14.45648192997963
 20
-3.097829860336653
 10
14.2802652959091
 20
-3.097829860336653
 10
14.2802652959091
 20
-3.097829860336653
 10
14.2802652959091
 20
-3.097829860336653
 10
14.2802652959091
 20
-2.973117403770609
 10
14.2802652959091
 20
-2.973117403770609
 10
14.2802652959091
 20
-2.973117403770609
 10
14.45648192997963
 20
-2.973117403770609
 10
14.45648192997963
 20
-2.973117403770609
 10
14.45648192997963
 20
-2.973117403770609
 10
14.45648192997963
 20
-2.588300238068202
 10
14.45648192997963
 20
-2.588300238068202
 10
14.45648192997963
 20
-2.588300238068202
 10
14.60823838610488
 20
-2.588300238068202
 10
14.60823838610488
 20
-2.588300238068202
 10
14.60823838610488
 20
-2.588300238068202
 10
14.60823838610488
 20
-2.973117403770609
 10
14.60823838610488
 20
-2.973117403770609
 10
14.60823838610488
 20
-2.973117403770609
 10
14.91175129835539
 20
-2.973117403770609
 10
14.91175129835539
 20
-2.973117403770609
 10
14.91175129835539
 20
-2.973117403770609
 10
14.91175129835539
 20
-3.097829860336653
 10
14.91175129835539
 20
-3.097829860336653
 10
14.91175129835539
 20
-3.097829860336653
 10
14.60823838610488
 20
-3.097829860336653
 10
14.60823838610488
 20
-3.097829860336653
 10
14.60823838610488
 20
-3.097829860336653
 10
14.60823838610488
 20
-4.040924749423797
 10
14.60823838610488
 20
-4.040924749423797
 10
14.60823838610488
 20
-4.190958657806427
 10
14.66335991386888
 20
-4.26588948461061
 10
14.77360296939688
 20
-4.26588948461061
 10
14.81873372025365
 20
-4.26588948461061
 10
14.86386447111042
 20
-4.255037433832074
 10
14.90899522196719
 20
-4.233333332275
 10
14.90899522196719
 20
-4.233333332275
 10
14.93879529791461
 20
-4.349949814450707
 10
14.93879529791461
 20
-4.349949814450707
 10
14.87385524801765
 20
-4.38061116426943
 10
14.80788166947511
 20
-4.395941839178792
 10
14.74104681706126
 20
-4.395941839178792
 10
14.64889051283083
 20
-4.395941839178792
 10
14.57843831015747
 20
-4.364419215488756
 10
14.52969020904119
 20
-4.301029458560159
 10
14.48076985315064
 20
-4.237811956405825
 10
14.45648192997963
 20
-4.147550454692279
 10
14.45648192997963
 20
-4.030072698645259
 97
        0
 97
        1
330
9A
 75
     2
 76
     1
 98
        1
 10
0.0
 20
0.0
450
        0
451
        0
460
0.0
461
0.0
452
        0
462
0.0
453
        0
470

  0
SPLINE
  5
9C
330
7D
100
AcDbEntity
  8
レイヤー 1
100
AcDbSpline
210
0.0
220
0.0
230
1.0
 70
    11
 71
     3
 72
    17
 73
    13
 74
     0
 42
0.0000000001
 43
0.0000000001
 40
0.0
 40
0.0
 40
0.0
 40
0.0
 40
1.0
 40
1.0
 40
1.0
 40
2.0
 40
2.0
 40
2.0
 40
3.0
 40
3.0
 40
3.0
 40
4.0
 40
4.0
 40
4.0
 40
4.0
 10
15.62454155425359
 20
-2.973117403770609
 30
0.0
 10
15.62454155425359
 20
-2.973117403770609
 30
0.0
 10
15.77629801037884
 20
-2.973117403770609
 30
0.0
 10
15.77629801037884
 20
-2.973117403770609
 30
0.0
 10
15.77629801037884
 20
-2.973117403770609
 30
0.0
 10
15.77629801037884
 20
-4.366141763231381
 30
0.0
 10
15.77629801037884
 20
-4.366141763231381
 30
0.0
 10
15.77629801037884
 20
-4.366141763231381
 30
0.0
 10
15.62454155425359
 20
-4.366141763231381
 30
0.0
 10
15.62454155425359
 20
-4.366141763231381
 30
0.0
 10
15.62454155425359
 20
-4.366141763231381
 30
0.0
 10
15.62454155425359
 20
-2.973117403770609
 30
0.0
 10
15.62454155425359
 20
-2.973117403770609
 30
0.0
  0
SPLINE
  5
9D
330
7D
100
AcDbEntity
  8
レイヤー 1
100
AcDbSpline
210
0.0
220
0.0
230
1.0
 70
    11
 71
     3
 72
    17
 73
    13
 74
     0
 42
0.0000000001
 43
0.0000000001
 40
0.0
 40
0.0
 40
0.0
 40
0.0
 40
1.0
 40
1.0
 40
1.0
 40
2.0
 40
2.0
 40
2.0
 40
3.0
 40
3.0
 40
3.0
 40
4.0
 40
4.0
 40
4.0
 40
4.0
 10
15.62178547786539
 20
-2.431031629166547
 30
0.0
 10
15.62178547786539
 20
-2.431031629166547
 30
0.0
 10
15.78181016315524
 20
-2.431031629166547
 30
0.0
 10
15.78181016315524
 20
-2.431031629166547
 30
0.0
 10
15.78181016315524
 20
-2.431031629166547
 30
0.0
 10
15.78181016315524
 20
-2.69389241469111
 30
0.0
 10
15.78181016315524
 20
-2.69389241469111
 30
0.0
 10
15.78181016315524
 20
-2.69389241469111
 30
0.0
 10
15.62178547786539
 20
-2.69389241469111
 30
0.0
 10
15.62178547786539
 20
-2.69389241469111
 30
0.0
 10
15.62178547786539
 20
-2.69389241469111
 30
0.0
 10
15.62178547786539
 20
-2.431031629166547
 30
0.0
 10
15.62178547786539
 20
-2.431031629166547
 30
0.0
  0
HATCH
  5
9E
330
7D
100
AcDbEntity
  8
レイヤー 1
 62
   250
420
  4078137
440
 33554687
100
AcDbHatch
 10
0.0
 20
0.0
 30
0.0
210
0.0
220
0.0
230
1.0
  2
SOLID
 70
     1
 71
     1
 91
        2
 92
        1
 93
        1
 72
     4
 94
        3
 73
     0
 74
     0
 95
       17
 96
       13
 40
0.0
 40
0.0
 40
0.0
 40
0.0
 40
1.0
 40
1.0
 40
1.0
 40
2.0
 40
2.0
 40
2.0
 40
3.0
 40
3.0
 40
3.0
 40
4.0
 40
4.0
 40
4.0
 40
4.0
 10
15.62454155425359
 20
-2.973117403770609
 10
15.62454155425359
 20
-2.973117403770609
 10
15.77629801037884
 20
-2.973117403770609
 10
15.77629801037884
 20
-2.973117403770609
 10
15.77629801037884
 20
-2.973117403770609
 10
15.77629801037884
 20
-4.366141763231381
 10
15.77629801037884
 20
-4.366141763231381
 10
15.77629801037884
 20
-4.366141763231381
 10
15.62454155425359
 20
-4.366141763231381
 10
15.62454155425359
 20
-4.366141763231381
 10
15.62454155425359
 20
-4.366141763231381
 10
15.62454155425359
 20
-2.973117403770609
 10
15.62454155425359
 20
-2.973117403770609
 97
        0
 97
        1
330
9C
 92
        1
 93
        1
 72
     4
 94
        3
 73
     0
 74
     0
 95
       17
 96
       13
 40
0.0
 40
0.0
 40
0.0
 40
0.0
 40
1.0
 40
1.0
 40
1.0
 40
2.0
 40
2.0
 40
2.0
 40
3.0
 40
3.0
 40
3.0
 40
4.0
 40
4.0
 40
4.0
 40
4.0
 10
15.62178547786539
 20
-2.431031629166547
 10
15.62178547786539
 20
-2.431031629166547
 10
15.78181016315524
 20
-2.431031629166547
 10
15.78181016315524
 20
-2.431031629166547
 10
15.78181016315524
 20
-2.431031629166547
 10
15.78181016315524
 20
-2.69389241469111
 10
15.78181016315524
 20
-2.69389241469111
 10
15.78181016315524
 20
-2.69389241469111
 10
15.62178547786539
 20
-2.69389241469111
 10
15.62178547786539
 20
-2.69389241469111
 10
15.62178547786539
 20
-2.69389241469111
 10
15.62178547786539
 20
-2.431031629166547
 10
15.62178547786539
 20
-2.431031629166547
 97
        0
 97
        1
330
9D
 75
     2
 76
     1
 98
        1
 10
0.0
 20
0.0
450
        0
451
        0
460
0.0
461
0.0
452
        0
462
0.0
453
        0
470

  0
SPLINE
  5
9F
330
7D
100
AcDbEntity
  8
レイヤー 1
100
AcDbSpline
210
0.0
220
0.0
230
1.0
 70
    11
 71
     3
 72
    56
 73
    52
 74
     0
 42
0.0000000001
 43
0.0000000001
 40
0.0
 40
0.0
 40
0.0
 40
0.0
 40
1.0
 40
1.0
 40
1.0
 40
2.0
 40
2.0
 40
2.0
 40
3.0
 40
3.0
 40
3.0
 40
4.0
 40
4.0
 40
4.0
 40
5.0
 40
5.0
 40
5.0
 40
6.0
 40
6.0
 40
6.0
 40
7.0
 40
7.0
 40
7.0
 40
8.0
 40
8.0
 40
8.0
 40
9.0
 40
9.0
 40
9.0
 40
10.0
 40
10.0
 40
10.0
 40
11.0
 40
11.0
 40
11.0
 40
12.0
 40
12.0
 40
12.0
 40
13.0
 40
13.0
 40
13.0
 40
14.0
 40
14.0
 40
14.0
 40
15.0
 40
15.0
 40
15.0
 40
16.0
 40
16.0
 40
16.0
 40
17.0
 40
17.0
 40
17.0
 40
17.0
 10
16.16111517608125
 20
-2.973117403770609
 30
0.0
 10
16.16111517608125
 20
-2.973117403770609
 30
0.0
 10
16.3128716322065
 20
-2.973117403770609
 30
0.0
 10
16.3128716322065
 20
-2.973117403770609
 30
0.0
 10
16.3128716322065
 20
-2.973117403770609
 30
0.0
 10
16.3128716322065
 20
-3.154673935843276
 30
0.0
 10
16.3128716322065
 20
-3.154673935843276
 30
0.0
 10
16.35800238306328
 20
-3.082499185427292
 30
0.0
 10
16.41501871334416
 20
-3.026860893340507
 30
0.0
 10
16.48357611350063
 20
-2.987931314357183
 30
0.0
 10
16.55230576843137
 20
-2.949173990148123
 30
0.0
 10
16.62465277362161
 20
-2.929709200656461
 30
0.0
 10
16.70044487429711
 20
-2.929709200656461
 30
0.0
 10
16.81602782782724
 20
-2.929709200656461
 30
0.0
 10
16.90680609386357
 20
-2.966743977122897
 30
0.0
 10
16.97277967240611
 20
-3.040813530055769
 30
0.0
 10
17.03875325094864
 20
-3.11488308298864
 30
0.0
 10
17.07182616760704
 20
-3.21789143799761
 30
0.0
 10
17.07182616760704
 20
-3.349838595082679
 30
0.0
 10
17.07182616760704
 20
-3.349838595082679
 30
0.0
 10
17.07182616760704
 20
-4.366141763231381
 30
0.0
 10
17.07182616760704
 20
-4.366141763231381
 30
0.0
 10
17.07182616760704
 20
-4.366141763231381
 30
0.0
 10
16.91731363509359
 20
-4.366141763231381
 30
0.0
 10
16.91731363509359
 20
-4.366141763231381
 30
0.0
 10
16.91731363509359
 20
-4.366141763231381
 30
0.0
 10
16.91731363509359
 20
-3.37412651825369
 30
0.0
 10
16.91731363509359
 20
-3.37412651825369
 30
0.0
 10
16.91731363509359
 20
-3.170004610752637
 30
0.0
 10
16.83239203138218
 20
-3.068029784389242
 30
0.0
 10
16.66254882395936
 20
-3.068029784389242
 30
0.0
 10
16.61190592032619
 20
-3.068029784389242
 30
0.0
 10
16.56229654533859
 20
-3.080087618587616
 30
0.0
 10
16.51337618944804
 20
-3.10454779653289
 30
0.0
 10
16.46462808833176
 20
-3.129007974478164
 30
0.0
 10
16.4231146877345
 20
-3.160013833845413
 30
0.0
 10
16.38883598765626
 20
-3.198082138957424
 30
0.0
 10
16.3652370835823
 20
-3.225126138516635
 30
0.0
 10
16.34680582273621
 20
-3.254064940592733
 30
0.0
 10
16.33319769556948
 20
-3.284726290411457
 30
0.0
 10
16.319761823177
 20
-3.315559895004443
 30
0.0
 10
16.3128716322065
 20
-3.347082518694479
 30
0.0
 10
16.3128716322065
 20
-3.37963867103009
 30
0.0
 10
16.3128716322065
 20
-3.37963867103009
 30
0.0
 10
16.3128716322065
 20
-4.366141763231381
 30
0.0
 10
16.3128716322065
 20
-4.366141763231381
 30
0.0
 10
16.3128716322065
 20
-4.366141763231381
 30
0.0
 10
16.16111517608125
 20
-4.366141763231381
 30
0.0
 10
16.16111517608125
 20
-4.366141763231381
 30
0.0
 10
16.16111517608125
 20
-4.366141763231381
 30
0.0
 10
16.16111517608125
 20
-2.973117403770609
 30
0.0
 10
16.16111517608125
 20
-2.973117403770609
 30
0.0
  0
HATCH
  5
A0
330
7D
100
AcDbEntity
  8
レイヤー 1
 62
   250
420
  4078137
440
 33554687
100
AcDbHatch
 10
0.0
 20
0.0
 30
0.0
210
0.0
220
0.0
230
1.0
  2
SOLID
 70
     1
 71
     1
 91
        1
 92
        1
 93
        1
 72
     4
 94
        3
 73
     0
 74
     0
 95
       56
 96
       52
 40
0.0
 40
0.0
 40
0.0
 40
0.0
 40
1.0
 40
1.0
 40
1.0
 40
2.0
 40
2.0
 40
2.0
 40
3.0
 40
3.0
 40
3.0
 40
4.0
 40
4.0
 40
4.0
 40
5.0
 40
5.0
 40
5.0
 40
6.0
 40
6.0
 40
6.0
 40
7.0
 40
7.0
 40
7.0
 40
8.0
 40
8.0
 40
8.0
 40
9.0
 40
9.0
 40
9.0
 40
10.0
 40
10.0
 40
10.0
 40
11.0
 40
11.0
 40
11.0
 40
12.0
 40
12.0
 40
12.0
 40
13.0
 40
13.0
 40
13.0
 40
14.0
 40
14.0
 40
14.0
 40
15.0
 40
15.0
 40
15.0
 40
16.0
 40
16.0
 40
16.0
 40
17.0
 40
17.0
 40
17.0
 40
17.0
 10
16.16111517608125
 20
-2.973117403770609
 10
16.16111517608125
 20
-2.973117403770609
 10
16.3128716322065
 20
-2.973117403770609
 10
16.3128716322065
 20
-2.973117403770609
 10
16.3128716322065
 20
-2.973117403770609
 10
16.3128716322065
 20
-3.154673935843276
 10
16.3128716322065
 20
-3.154673935843276
 10
16.35800238306328
 20
-3.082499185427292
 10
16.41501871334416
 20
-3.026860893340507
 10
16.48357611350063
 20
-2.987931314357183
 10
16.55230576843137
 20
-2.949173990148123
 10
16.62465277362161
 20
-2.929709200656461
 10
16.70044487429711
 20
-2.929709200656461
 10
16.81602782782724
 20
-2.929709200656461
 10
16.90680609386357
 20
-2.966743977122897
 10
16.97277967240611
 20
-3.040813530055769
 10
17.03875325094864
 20
-3.11488308298864
 10
17.07182616760704
 20
-3.21789143799761
 10
17.07182616760704
 20
-3.349838595082679
 10
17.07182616760704
 20
-3.349838595082679
 10
17.07182616760704
 20
-4.366141763231381
 10
17.07182616760704
 20
-4.366141763231381
 10
17.07182616760704
 20
-4.366141763231381
 10
16.91731363509359
 20
-4.366141763231381
 10
16.91731363509359
 20
-4.366141763231381
 10
16.91731363509359
 20
-4.366141763231381
 10
16.91731363509359
 20
-3.37412651825369
 10
16.91731363509359
 20
-3.37412651825369
 10
16.91731363509359
 20
-3.170004610752637
 10
16.83239203138218
 20
-3.068029784389242
 10
16.66254882395936
 20
-3.068029784389242
 10
16.61190592032619
 20
-3.068029784389242
 10
16.56229654533859
 20
-3.080087618587616
 10
16.51337618944804
 20
-3.10454779653289
 10
16.46462808833176
 20
-3.129007974478164
 10
16.4231146877345
 20
-3.160013833845413
 10
16.38883598765626
 20
-3.198082138957424
 10
16.3652370835823
 20
-3.225126138516635
 10
16.34680582273621
 20
-3.254064940592733
 10
16.33319769556948
 20
-3.284726290411457
 10
16.319761823177
 20
-3.315559895004443
 10
16.3128716322065
 20
-3.347082518694479
 10
16.3128716322065
 20
-3.37963867103009
 10
16.3128716322065
 20
-3.37963867103009
 10
16.3128716322065
 20
-4.366141763231381
 10
16.3128716322065
 20
-4.366141763231381
 10
16.3128716322065
 20
-4.366141763231381
 10
16.16111517608125
 20
-4.366141763231381
 10
16.16111517608125
 20
-4.366141763231381
 10
16.16111517608125
 20
-4.366141763231381
 10
16.16111517608125
 20
-2.973117403770609
 10
16.16111517608125
 20
-2.973117403770609
 97
        0
 97
        1
330
9F
 75
     2
 76
     1
 98
        1
 10
0.0
 20
0.0
450
        0
451
        0
460
0.0
461
0.0
452
        0
462
0.0
453
        0
470

  0
SPLINE
  5
A1
330
7D
100
AcDbEntity
  8
レイヤー 1
100
AcDbSpline
210
0.0
220
0.0
230
1.0
 70
     9
 71
     3
 72
    80
 73
    76
 74
     0
 42
0.0000000001
 43
0.0000000001
 40
0.0
 40
0.0
 40
0.0
 40
0.0
 40
1.0
 40
1.0
 40
1.0
 40
2.0
 40
2.0
 40
2.0
 40
3.0
 40
3.0
 40
3.0
 40
4.0
 40
4.0
 40
4.0
 40
5.0
 40
5.0
 40
5.0
 40
6.0
 40
6.0
 40
6.0
 40
7.0
 40
7.0
 40
7.0
 40
8.0
 40
8.0
 40
8.0
 40
9.0
 40
9.0
 40
9.0
 40
10.0
 40
10.0
 40
10.0
 40
11.0
 40
11.0
 40
11.0
 40
12.0
 40
12.0
 40
12.0
 40
13.0
 40
13.0
 40
13.0
 40
14.0
 40
14.0
 40
14.0
 40
15.0
 40
15.0
 40
15.0
 40
16.0
 40
16.0
 40
16.0
 40
17.0
 40
17.0
 40
17.0
 40
18.0
 40
18.0
 40
18.0
 40
19.0
 40
19.0
 40
19.0
 40
20.0
 40
20.0
 40
20.0
 40
21.0
 40
21.0
 40
21.0
 40
22.0
 40
22.0
 40
22.0
 40
23.0
 40
23.0
 40
23.0
 40
24.0
 40
24.0
 40
24.0
 40
25.0
 40
25.0
 40
25.0
 40
25.0
 10
18.0474772090298
 20
-4.011124673476385
 30
0.0
 10
18.0474772090298
 20
-3.931542967767114
 30
0.0
 10
18.02852918386092
 20
-3.870220268129667
 30
0.0
 10
17.99063313352317
 20
-3.826812065015519
 30
0.0
 10
17.95256482841116
 20
-3.783403861901371
 30
0.0
 10
17.88848605238551
 20
-3.749125161823135
 30
0.0
 10
17.79805229589771
 20
-3.723803710006549
 30
0.0
 10
17.79805229589771
 20
-3.723803710006549
 30
0.0
 10
17.66799994132953
 20
-3.688663736057
 30
0.0
 10
17.66799994132953
 20
-3.688663736057
 30
0.0
 10
17.46198323131159
 20
-3.628891329387916
 30
0.0
 10
17.35914713107688
 20
-3.505212401467447
 30
0.0
 10
17.35914713107688
 20
-3.317282442747068
 30
0.0
 10
17.35914713107688
 20
-3.199804686700049
 30
0.0
 10
17.39704318141463
 20
-3.10592583472699
 30
0.0
 10
17.47283528209012
 20
-3.035473632053631
 30
0.0
 10
17.54879963753988
 20
-2.965021429380272
 30
0.0
 10
17.64732936841803
 20
-2.929709200656461
 30
0.0
 10
17.7682522199503
 20
-2.929709200656461
 30
0.0
 10
17.88572997599732
 20
-2.929709200656461
 30
0.0
 10
17.97736951590496
 20
-2.958131238409773
 30
0.0
 10
18.04334309444749
 20
-3.015147568690657
 30
0.0
 10
18.10931667299003
 20
-3.07199164419728
 30
0.0
 10
18.15410291429828
 20
-3.1619086363623
 30
0.0
 10
18.17752956359798
 20
-3.284726290411457
 30
0.0
 10
18.17752956359798
 20
-3.284726290411457
 30
0.0
 10
18.03386908186306
 20
-3.306430391968531
 30
0.0
 10
18.03386908186306
 20
-3.306430391968531
 30
0.0
 10
18.01405978282287
 20
-3.216168890254985
 30
0.0
 10
17.98339843300415
 20
-3.151573349906551
 30
0.0
 10
17.94171277763263
 20
-3.112643770923228
 30
0.0
 10
17.90019937703537
 20
-3.073886446714167
 30
0.0
 10
17.84146049901186
 20
-3.054421657222505
 30
0.0
 10
17.76566839833636
 20
-3.054421657222505
 30
0.0
 10
17.68608669262709
 20
-3.054421657222505
 30
0.0
 10
17.62338595479554
 20
-3.076125758779579
 30
0.0
 10
17.57722167529319
 20
-3.119361707119465
 30
0.0
 10
17.53122965056511
 20
-3.162769910233613
 30
0.0
 10
17.50814751081393
 20
-3.224264864645322
 30
0.0
 10
17.50814751081393
 20
-3.303674315580331
 30
0.0
 10
17.50814751081393
 20
-3.372403970511065
 30
0.0
 10
17.52537298824018
 20
-3.426147460080963
 30
0.0
 10
17.55965168831842
 20
-3.465077039064286
 30
0.0
 10
17.59393038839666
 20
-3.503834363273347
 30
0.0
 10
17.65266926642016
 20
-3.53587375128617
 30
0.0
 10
17.73586832238895
 20
-3.561195203102756
 30
0.0
 10
17.73586832238895
 20
-3.561195203102756
 30
0.0
 10
17.87126057495927
 20
-3.599091253440505
 30
0.0
 10
17.87126057495927
 20
-3.599091253440505
 30
0.0
 10
17.9868435284894
 20
-3.633542208293003
 30
0.0
 10
18.07055934878097
 20
-3.682290309409288
 30
0.0
 10
18.12206352628546
 20
-3.745507811563623
 30
0.0
 10
18.17356770378994
 20
-3.808725313717957
 30
0.0
 10
18.19923366515505
 20
-3.894508191300678
 30
0.0
 10
18.19923366515505
 20
-4.003028699086048
 30
0.0
 10
18.19923366515505
 20
-4.125846353135205
 30
0.0
 10
18.1613376148173
 20
-4.22437608401335
 30
0.0
 10
18.08537325936755
 20
-4.298445636946222
 30
0.0
 10
18.00958115869205
 20
-4.372515189879093
 30
0.0
 10
17.90743407755439
 20
-4.409549966345529
 30
0.0
 10
17.77910427072884
 20
-4.409549966345529
 30
0.0
 10
17.51538221133296
 20
-4.409549966345529
 30
0.0
 10
17.36724310546722
 20
-4.269506834870123
 30
0.0
 10
17.3346869531316
 20
-3.989420571919311
 30
0.0
 10
17.3346869531316
 20
-3.989420571919311
 30
0.0
 10
17.48368733286866
 20
-3.989420571919311
 30
0.0
 10
17.48368733286866
 20
-3.989420571919311
 30
0.0
 10
17.51090358720214
 20
-4.184585231158714
 30
0.0
 10
17.60926106330602
 20
-4.282081433391285
 30
0.0
 10
17.77910427072884
 20
-4.282081433391285
 30
0.0
 10
17.86402587444024
 20
-4.282081433391285
 30
0.0
 10
17.92999945298278
 20
-4.258138019768798
 30
0.0
 10
17.97702500635644
 20
-4.210251192523826
 30
0.0
 10
18.0240505597301
 20
-4.162536620053115
 30
0.0
 10
18.0474772090298
 20
-4.096046277187793
 30
0.0
 10
18.0474772090298
 20
-4.011124673476385
 30
0.0
  0
HATCH
  5
A2
330
7D
100
AcDbEntity
  8
レイヤー 1
 62
   250
420
  4078137
440
 33554687
100
AcDbHatch
 10
0.0
 20
0.0
 30
0.0
210
0.0
220
0.0
230
1.0
  2
SOLID
 70
     1
 71
     1
 91
        1
 92
        1
 93
        1
 72
     4
 94
        3
 73
     0
 74
     0
 95
       80
 96
       76
 40
0.0
 40
0.0
 40
0.0
 40
0.0
 40
1.0
 40
1.0
 40
1.0
 40
2.0
 40
2.0
 40
2.0
 40
3.0
 40
3.0
 40
3.0
 40
4.0
 40
4.0
 40
4.0
 40
5.0
 40
5.0
 40
5.0
 40
6.0
 40
6.0
 40
6.0
 40
7.0
 40
7.0
 40
7.0
 40
8.0
 40
8.0
 40
8.0
 40
9.0
 40
9.0
 40
9.0
 40
10.0
 40
10.0
 40
10.0
 40
11.0
 40
11.0
 40
11.0
 40
12.0
 40
12.0
 40
12.0
 40
13.0
 40
13.0
 40
13.0
 40
14.0
 40
14.0
 40
14.0
 40
15.0
 40
15.0
 40
15.0
 40
16.0
 40
16.0
 40
16.0
 40
17.0
 40
17.0
 40
17.0
 40
18.0
 40
18.0
 40
18.0
 40
19.0
 40
19.0
 40
19.0
 40
20.0
 40
20.0
 40
20.0
 40
21.0
 40
21.0
 40
21.0
 40
22.0
 40
22.0
 40
22.0
 40
23.0
 40
23.0
 40
23.0
 40
24.0
 40
24.0
 40
24.0
 40
25.0
 40
25.0
 40
25.0
 40
25.0
 10
18.0474772090298
 20
-4.011124673476385
 10
18.0474772090298
 20
-3.931542967767114
 10
18.02852918386092
 20
-3.870220268129667
 10
17.99063313352317
 20
-3.826812065015519
 10
17.95256482841116
 20
-3.783403861901371
 10
17.88848605238551
 20
-3.749125161823135
 10
17.79805229589771
 20
-3.723803710006549
 10
17.79805229589771
 20
-3.723803710006549
 10
17.66799994132953
 20
-3.688663736057
 10
17.66799994132953
 20
-3.688663736057
 10
17.46198323131159
 20
-3.628891329387916
 10
17.35914713107688
 20
-3.505212401467447
 10
17.35914713107688
 20
-3.317282442747068
 10
17.35914713107688
 20
-3.199804686700049
 10
17.39704318141463
 20
-3.10592583472699
 10
17.47283528209012
 20
-3.035473632053631
 10
17.54879963753988
 20
-2.965021429380272
 10
17.64732936841803
 20
-2.929709200656461
 10
17.7682522199503
 20
-2.929709200656461
 10
17.88572997599732
 20
-2.929709200656461
 10
17.97736951590496
 20
-2.958131238409773
 10
18.04334309444749
 20
-3.015147568690657
 10
18.10931667299003
 20
-3.07199164419728
 10
18.15410291429828
 20
-3.1619086363623
 10
18.17752956359798
 20
-3.284726290411457
 10
18.17752956359798
 20
-3.284726290411457
 10
18.03386908186306
 20
-3.306430391968531
 10
18.03386908186306
 20
-3.306430391968531
 10
18.01405978282287
 20
-3.216168890254985
 10
17.98339843300415
 20
-3.151573349906551
 10
17.94171277763263
 20
-3.112643770923228
 10
17.90019937703537
 20
-3.073886446714167
 10
17.84146049901186
 20
-3.054421657222505
 10
17.76566839833636
 20
-3.054421657222505
 10
17.68608669262709
 20
-3.054421657222505
 10
17.62338595479554
 20
-3.076125758779579
 10
17.57722167529319
 20
-3.119361707119465
 10
17.53122965056511
 20
-3.162769910233613
 10
17.50814751081393
 20
-3.224264864645322
 10
17.50814751081393
 20
-3.303674315580331
 10
17.50814751081393
 20
-3.372403970511065
 10
17.52537298824018
 20
-3.426147460080963
 10
17.55965168831842
 20
-3.465077039064286
 10
17.59393038839666
 20
-3.503834363273347
 10
17.65266926642016
 20
-3.53587375128617
 10
17.73586832238895
 20
-3.561195203102756
 10
17.73586832238895
 20
-3.561195203102756
 10
17.87126057495927
 20
-3.599091253440505
 10
17.87126057495927
 20
-3.599091253440505
 10
17.9868435284894
 20
-3.633542208293003
 10
18.07055934878097
 20
-3.682290309409288
 10
18.12206352628546
 20
-3.745507811563623
 10
18.17356770378994
 20
-3.808725313717957
 10
18.19923366515505
 20
-3.894508191300678
 10
18.19923366515505
 20
-4.003028699086048
 10
18.19923366515505
 20
-4.125846353135205
 10
18.1613376148173
 20
-4.22437608401335
 10
18.08537325936755
 20
-4.298445636946222
 10
18.00958115869205
 20
-4.372515189879093
 10
17.90743407755439
 20
-4.409549966345529
 10
17.77910427072884
 20
-4.409549966345529
 10
17.51538221133296
 20
-4.409549966345529
 10
17.36724310546722
 20
-4.269506834870123
 10
17.3346869531316
 20
-3.989420571919311
 10
17.3346869531316
 20
-3.989420571919311
 10
17.48368733286866
 20
-3.989420571919311
 10
17.48368733286866
 20
-3.989420571919311
 10
17.51090358720214
 20
-4.184585231158714
 10
17.60926106330602
 20
-4.282081433391285
 10
17.77910427072884
 20
-4.282081433391285
 10
17.86402587444024
 20
-4.282081433391285
 10
17.92999945298278
 20
-4.258138019768798
 10
17.97702500635644
 20
-4.210251192523826
 10
18.0240505597301
 20
-4.162536620053115
 10
18.0474772090298
 20
-4.096046277187793
 10
18.0474772090298
 20
-4.011124673476385
 97
        0
 97
        1
330
A1
 75
     2
 76
     1
 98
        1
 10
0.0
 20
0.0
450
        0
451
        0
460
0.0
461
0.0
452
        0
462
0.0
453
        0
470

  0
SPLINE
  5
A3
330
7D
100
AcDbEntity
  8
レイヤー 1
100
AcDbSpline
210
0.0
220
0.0
230
1.0
 70
     9
 71
     3
 72
    56
 73
    52
 74
     0
 42
0.0000000001
 43
0.0000000001
 40
0.0
 40
0.0
 40
0.0
 40
0.0
 40
1.0
 40
1.0
 40
1.0
 40
2.0
 40
2.0
 40
2.0
 40
3.0
 40
3.0
 40
3.0
 40
4.0
 40
4.0
 40
4.0
 40
5.0
 40
5.0
 40
5.0
 40
6.0
 40
6.0
 40
6.0
 40
7.0
 40
7.0
 40
7.0
 40
8.0
 40
8.0
 40
8.0
 40
9.0
 40
9.0
 40
9.0
 40
10.0
 40
10.0
 40
10.0
 40
11.0
 40
11.0
 40
11.0
 40
12.0
 40
12.0
 40
12.0
 40
13.0
 40
13.0
 40
13.0
 40
14.0
 40
14.0
 40
14.0
 40
15.0
 40
15.0
 40
15.0
 40
16.0
 40
16.0
 40
16.0
 40
17.0
 40
17.0
 40
17.0
 40
17.0
 10
18.48931070501309
 20
-4.030072698645259
 30
0.0
 10
18.48931070501309
 20
-4.030072698645259
 30
0.0
 10
18.48931070501309
 20
-3.097829860336653
 30
0.0
 10
18.48931070501309
 20
-3.097829860336653
 30
0.0
 10
18.48931070501309
 20
-3.097829860336653
 30
0.0
 10
18.31309407094256
 20
-3.097829860336653
 30
0.0
 10
18.31309407094256
 20
-3.097829860336653
 30
0.0
 10
18.31309407094256
 20
-3.097829860336653
 30
0.0
 10
18.31309407094256
 20
-2.973117403770609
 30
0.0
 10
18.31309407094256
 20
-2.973117403770609
 30
0.0
 10
18.31309407094256
 20
-2.973117403770609
 30
0.0
 10
18.48931070501309
 20
-2.973117403770609
 30
0.0
 10
18.48931070501309
 20
-2.973117403770609
 30
0.0
 10
18.48931070501309
 20
-2.973117403770609
 30
0.0
 10
18.48931070501309
 20
-2.588300238068202
 30
0.0
 10
18.48931070501309
 20
-2.588300238068202
 30
0.0
 10
18.48931070501309
 20
-2.588300238068202
 30
0.0
 10
18.64106716113834
 20
-2.588300238068202
 30
0.0
 10
18.64106716113834
 20
-2.588300238068202
 30
0.0
 10
18.64106716113834
 20
-2.588300238068202
 30
0.0
 10
18.64106716113834
 20
-2.973117403770609
 30
0.0
 10
18.64106716113834
 20
-2.973117403770609
 30
0.0
 10
18.64106716113834
 20
-2.973117403770609
 30
0.0
 10
18.94458007338885
 20
-2.973117403770609
 30
0.0
 10
18.94458007338885
 20
-2.973117403770609
 30
0.0
 10
18.94458007338885
 20
-2.973117403770609
 30
0.0
 10
18.94458007338885
 20
-3.097829860336653
 30
0.0
 10
18.94458007338885
 20
-3.097829860336653
 30
0.0
 10
18.94458007338885
 20
-3.097829860336653
 30
0.0
 10
18.64106716113834
 20
-3.097829860336653
 30
0.0
 10
18.64106716113834
 20
-3.097829860336653
 30
0.0
 10
18.64106716113834
 20
-3.097829860336653
 30
0.0
 10
18.64106716113834
 20
-4.040924749423797
 30
0.0
 10
18.64106716113834
 20
-4.040924749423797
 30
0.0
 10
18.64106716113834
 20
-4.190958657806427
 30
0.0
 10
18.69618868890234
 20
-4.26588948461061
 30
0.0
 10
18.80643174443034
 20
-4.26588948461061
 30
0.0
 10
18.85156249528711
 20
-4.26588948461061
 30
0.0
 10
18.89669324614388
 20
-4.255037433832074
 30
0.0
 10
18.94182399700065
 20
-4.233333332275
 30
0.0
 10
18.94182399700065
 20
-4.233333332275
 30
0.0
 10
18.97162407294807
 20
-4.349949814450707
 30
0.0
 10
18.97162407294807
 20
-4.349949814450707
 30
0.0
 10
18.9066840230511
 20
-4.38061116426943
 30
0.0
 10
18.84071044450857
 20
-4.395941839178792
 30
0.0
 10
18.77387559209472
 20
-4.395941839178792
 30
0.0
 10
18.68171928786429
 20
-4.395941839178792
 30
0.0
 10
18.61126708519093
 20
-4.364419215488756
 30
0.0
 10
18.56251898407465
 20
-4.301029458560159
 30
0.0
 10
18.5135986281841
 20
-4.237811956405825
 30
0.0
 10
18.48931070501309
 20
-4.147550454692279
 30
0.0
 10
18.48931070501309
 20
-4.030072698645259
 30
0.0
  0
HATCH
  5
A4
330
7D
100
AcDbEntity
  8
レイヤー 1
 62
   250
420
  4078137
440
 33554687
100
AcDbHatch
 10
0.0
 20
0.0
 30
0.0
210
0.0
220
0.0
230
1.0
  2
SOLID
 70
     1
 71
     1
 91
        1
 92
        1
 93
        1
 72
     4
 94
        3
 73
     0
 74
     0
 95
       56
 96
       52
 40
0.0
 40
0.0
 40
0.0
 40
0.0
 40
1.0
 40
1.0
 40
1.0
 40
2.0
 40
2.0
 40
2.0
 40
3.0
 40
3.0
 40
3.0
 40
4.0
 40
4.0
 40
4.0
 40
5.0
 40
5.0
 40
5.0
 40
6.0
 40
6.0
 40
6.0
 40
7.0
 40
7.0
 40
7.0
 40
8.0
 40
8.0
 40
8.0
 40
9.0
 40
9.0
 40
9.0
 40
10.0
 40
10.0
 40
10.0
 40
11.0
 40
11.0
 40
11.0
 40
12.0
 40
12.0
 40
12.0
 40
13.0
 40
13.0
 40
13.0
 40
14.0
 40
14.0
 40
14.0
 40
15.0
 40
15.0
 40
15.0
 40
16.0
 40
16.0
 40
16.0
 40
17.0
 40
17.0
 40
17.0
 40
17.0
 10
18.48931070501309
 20
-4.030072698645259
 10
18.48931070501309
 20
-4.030072698645259
 10
18.48931070501309
 20
-3.097829860336653
 10
18.48931070501309
 20
-3.097829860336653
 10
18.48931070501309
 20
-3.097829860336653
 10
18.31309407094256
 20
-3.097829860336653
 10
18.31309407094256
 20
-3.097829860336653
 10
18.31309407094256
 20
-3.097829860336653
 10
18.31309407094256
 20
-2.973117403770609
 10
18.31309407094256
 20
-2.973117403770609
 10
18.31309407094256
 20
-2.973117403770609
 10
18.48931070501309
 20
-2.973117403770609
 10
18.48931070501309
 20
-2.973117403770609
 10
18.48931070501309
 20
-2.973117403770609
 10
18.48931070501309
 20
-2.588300238068202
 10
18.48931070501309
 20
-2.588300238068202
 10
18.48931070501309
 20
-2.588300238068202
 10
18.64106716113834
 20
-2.588300238068202
 10
18.64106716113834
 20
-2.588300238068202
 10
18.64106716113834
 20
-2.588300238068202
 10
18.64106716113834
 20
-2.973117403770609
 10
18.64106716113834
 20
-2.973117403770609
 10
18.64106716113834
 20
-2.973117403770609
 10
18.94458007338885
 20
-2.973117403770609
 10
18.94458007338885
 20
-2.973117403770609
 10
18.94458007338885
 20
-2.973117403770609
 10
18.94458007338885
 20
-3.097829860336653
 10
18.94458007338885
 20
-3.097829860336653
 10
18.94458007338885
 20
-3.097829860336653
 10
18.64106716113834
 20
-3.097829860336653
 10
18.64106716113834
 20
-3.097829860336653
 10
18.64106716113834
 20
-3.097829860336653
 10
18.64106716113834
 20
-4.040924749423797
 10
18.64106716113834
 20
-4.040924749423797
 10
18.64106716113834
 20
-4.190958657806427
 10
18.69618868890234
 20
-4.26588948461061
 10
18.80643174443034
 20
-4.26588948461061
 10
18.85156249528711
 20
-4.26588948461061
 10
18.89669324614388
 20
-4.255037433832074
 10
18.94182399700065
 20
-4.233333332275
 10
18.94182399700065
 20
-4.233333332275
 10
18.97162407294807
 20
-4.349949814450707
 10
18.97162407294807
 20
-4.349949814450707
 10
18.9066840230511
 20
-4.38061116426943
 10
18.84071044450857
 20
-4.395941839178792
 10
18.77387559209472
 20
-4.395941839178792
 10
18.68171928786429
 20
-4.395941839178792
 10
18.61126708519093
 20
-4.364419215488756
 10
18.56251898407465
 20
-4.301029458560159
 10
18.5135986281841
 20
-4.237811956405825
 10
18.48931070501309
 20
-4.147550454692279
 10
18.48931070501309
 20
-4.030072698645259
 97
        0
 97
        1
330
A3
 75
     2
 76
     1
 98
        1
 10
0.0
 20
0.0
450
        0
451
        0
460
0.0
461
0.0
452
        0
462
0.0
453
        0
470

  0
SPLINE
  5
A5
330
7D
100
AcDbEntity
  8
レイヤー 1
100
AcDbSpline
210
0.0
220
0.0
230
1.0
 70
     9
 71
     3
 72
    29
 73
    25
 74
     0
 42
0.0000000001
 43
0.0000000001
 40
0.0
 40
0.0
 40
0.0
 40
0.0
 40
1.0
 40
1.0
 40
1.0
 40
2.0
 40
2.0
 40
2.0
 40
3.0
 40
3.0
 40
3.0
 40
4.0
 40
4.0
 40
4.0
 40
5.0
 40
5.0
 40
5.0
 40
6.0
 40
6.0
 40
6.0
 40
7.0
 40
7.0
 40
7.0
 40
8.0
 40
8.0
 40
8.0
 40
8.0
 10
19.28598903597711
 20
-3.978568521140774
 30
0.0
 10
19.28598903597711
 20
-4.070724825371208
 30
0.0
 10
19.30769313753419
 20
-4.142210556690142
 30
0.0
 10
19.35110134064833
 20
-4.192681205549051
 30
0.0
 10
19.39433728898822
 20
-4.243324109182224
 30
0.0
 10
19.45497096952862
 20
-4.268645560998811
 30
0.0
 10
19.532657872721
 20
-4.268645560998811
 30
0.0
 10
19.59587537487534
 20
-4.268645560998811
 30
0.0
 10
19.65271945038196
 20
-4.251936847895349
 30
0.0
 10
19.70336235401513
 20
-4.218519421688426
 30
0.0
 10
19.7540052576483
 20
-4.185101995481502
 30
0.0
 10
19.79414062005146
 20
-4.140832518496042
 30
0.0
 10
19.82394069599888
 20
-4.085710990732044
 30
0.0
 10
19.85374077194629
 20
-4.030589462968046
 30
0.0
 10
19.86872693730712
 20
-3.970472546750437
 30
0.0
 10
19.86872693730712
 20
-3.905360242079215
 30
0.0
 10
19.86872693730712
 20
-3.905360242079215
 30
0.0
 10
19.86872693730712
 20
-3.620795354997579
 30
0.0
 10
19.86872693730712
 20
-3.620795354997579
 30
0.0
 10
19.86872693730712
 20
-3.620795354997579
 30
0.0
 10
19.68717040523445
 20
-3.631647405776115
 30
0.0
 10
19.68717040523445
 20
-3.631647405776115
 30
0.0
 10
19.41965874080481
 20
-3.651628959590565
 30
0.0
 10
19.28598903597711
 20
-3.767211913120697
 30
0.0
 10
19.28598903597711
 20
-3.978568521140774
 30
0.0
  0
SPLINE
  5
A6
330
7D
100
AcDbEntity
  8
レイヤー 1
100
AcDbSpline
210
0.0
220
0.0
230
1.0
 70
     9
 71
     3
 72
    65
 73
    61
 74
     0
 42
0.0000000001
 43
0.0000000001
 40
0.0
 40
0.0
 40
0.0
 40
0.0
 40
1.0
 40
1.0
 40
1.0
 40
2.0
 40
2.0
 40
2.0
 40
3.0
 40
3.0
 40
3.0
 40
4.0
 40
4.0
 40
4.0
 40
5.0
 40
5.0
 40
5.0
 40
6.0
 40
6.0
 40
6.0
 40
7.0
 40
7.0
 40
7.0
 40
8.0
 40
8.0
 40
8.0
 40
9.0
 40
9.0
 40
9.0
 40
10.0
 40
10.0
 40
10.0
 40
11.0
 40
11.0
 40
11.0
 40
12.0
 40
12.0
 40
12.0
 40
13.0
 40
13.0
 40
13.0
 40
14.0
 40
14.0
 40
14.0
 40
15.0
 40
15.0
 40
15.0
 40
16.0
 40
16.0
 40
16.0
 40
17.0
 40
17.0
 40
17.0
 40
18.0
 40
18.0
 40
18.0
 40
19.0
 40
19.0
 40
19.0
 40
20.0
 40
20.0
 40
20.0
 40
20.0
 10
19.12889268184972
 20
-3.986664495531111
 30
0.0
 10
19.12889268184972
 20
-3.84765489270128
 30
0.0
 10
19.17626274477191
 20
-3.736895072850498
 30
0.0
 10
19.27117512539054
 20
-3.65472954552729
 30
0.0
 10
19.36591525123491
 20
-3.572564018204081
 30
0.0
 10
19.5009629942567
 20
-3.526055229153208
 30
0.0
 10
19.67631835445592
 20
-3.515203178374671
 30
0.0
 10
19.67631835445592
 20
-3.515203178374671
 30
0.0
 10
19.86872693730712
 20
-3.501595051207934
 30
0.0
 10
19.86872693730712
 20
-3.501595051207934
 30
0.0
 10
19.86872693730712
 20
-3.501595051207934
 30
0.0
 10
19.86872693730712
 20
-3.436482746536712
 30
0.0
 10
19.86872693730712
 20
-3.436482746536712
 30
0.0
 10
19.86872693730712
 20
-3.302813041709018
 30
0.0
 10
19.84702283575005
 20
-3.206178113347761
 30
0.0
 10
19.8036146326359
 20
-3.146577961452938
 30
0.0
 10
19.76037868429602
 20
-3.086977809558116
 30
0.0
 10
19.69078775549397
 20
-3.057177733610705
 30
0.0
 10
19.59501410100402
 20
-3.057177733610705
 30
0.0
 10
19.51181504503524
 20
-3.057177733610705
 30
0.0
 10
19.44808077855812
 20
-3.076125758779579
 30
0.0
 10
19.40398355634692
 20
-3.114021809117327
 30
0.0
 10
19.3595418245872
 20
-3.151917859455076
 30
0.0
 10
19.32939723909126
 20
-3.213412813866785
 30
0.0
 10
19.31303303553632
 20
-3.298334417578194
 30
0.0
 10
19.31303303553632
 20
-3.298334417578194
 30
0.0
 10
19.17488470657781
 20
-3.281970214023257
 30
0.0
 10
19.17488470657781
 20
-3.281970214023257
 30
0.0
 10
19.19469400561799
 20
-3.161047362490988
 30
0.0
 10
19.23999701124903
 20
-3.07199164419728
 30
0.0
 10
19.31044921392239
 20
-3.015147568690657
 30
0.0
 10
19.38090141659575
 20
-2.958131238409773
 30
0.0
 10
19.47925889269963
 20
-2.929709200656461
 30
0.0
 10
19.60586615178256
 20
-2.929709200656461
 30
0.0
 10
19.75038790738879
 20
-2.929709200656461
 30
0.0
 10
19.85563557446317
 20
-2.970878091705197
 30
0.0
 10
19.92160915300571
 20
-3.053043619028406
 30
0.0
 10
19.98741047677398
 20
-3.135209146351614
 30
0.0
 10
20.02048339343238
 20
-3.26491699137127
 30
0.0
 10
20.02048339343238
 20
-3.441994899313112
 30
0.0
 10
20.02048339343238
 20
-3.441994899313112
 30
0.0
 10
20.02048339343238
 20
-4.366141763231381
 30
0.0
 10
20.02048339343238
 20
-4.366141763231381
 30
0.0
 10
20.02048339343238
 20
-4.366141763231381
 30
0.0
 10
19.87148301369532
 20
-4.366141763231381
 30
0.0
 10
19.87148301369532
 20
-4.366141763231381
 30
0.0
 10
19.87148301369532
 20
-4.366141763231381
 30
0.0
 10
19.87148301369532
 20
-4.162881129601641
 30
0.0
 10
19.87148301369532
 20
-4.162881129601641
 30
0.0
 10
19.82618000806429
 20
-4.2388454850514
 30
0.0
 10
19.77105848030029
 20
-4.297067598752121
 30
0.0
 10
19.70611843040333
 20
-4.33771972547807
 30
0.0
 10
19.64100612573211
 20
-4.378371852204018
 30
0.0
 10
19.57055392305875
 20
-4.398697915566992
 30
0.0
 10
19.49476182238325
 20
-4.398697915566992
 30
0.0
 10
19.38090141659575
 20
-4.398697915566992
 30
0.0
 10
19.29150118875351
 20
-4.361663139100556
 30
0.0
 10
19.22638888408229
 20
-4.287593586167685
 30
0.0
 10
19.16127657941107
 20
-4.213524033234813
 30
0.0
 10
19.12889268184972
 20
-4.113271754614043
 30
0.0
 10
19.12889268184972
 20
-3.986664495531111
 30
0.0
  0
HATCH
  5
A7
330
7D
100
AcDbEntity
  8
レイヤー 1
 62
   250
420
  4078137
440
 33554687
100
AcDbHatch
 10
0.0
 20
0.0
 30
0.0
210
0.0
220
0.0
230
1.0
  2
SOLID
 70
     1
 71
     1
 91
        2
 92
        1
 93
        1
 72
     4
 94
        3
 73
     0
 74
     0
 95
       29
 96
       25
 40
0.0
 40
0.0
 40
0.0
 40
0.0
 40
1.0
 40
1.0
 40
1.0
 40
2.0
 40
2.0
 40
2.0
 40
3.0
 40
3.0
 40
3.0
 40
4.0
 40
4.0
 40
4.0
 40
5.0
 40
5.0
 40
5.0
 40
6.0
 40
6.0
 40
6.0
 40
7.0
 40
7.0
 40
7.0
 40
8.0
 40
8.0
 40
8.0
 40
8.0
 10
19.28598903597711
 20
-3.978568521140774
 10
19.28598903597711
 20
-4.070724825371208
 10
19.30769313753419
 20
-4.142210556690142
 10
19.35110134064833
 20
-4.192681205549051
 10
19.39433728898822
 20
-4.243324109182224
 10
19.45497096952862
 20
-4.268645560998811
 10
19.532657872721
 20
-4.268645560998811
 10
19.59587537487534
 20
-4.268645560998811
 10
19.65271945038196
 20
-4.251936847895349
 10
19.70336235401513
 20
-4.218519421688426
 10
19.7540052576483
 20
-4.185101995481502
 10
19.79414062005146
 20
-4.140832518496042
 10
19.82394069599888
 20
-4.085710990732044
 10
19.85374077194629
 20
-4.030589462968046
 10
19.86872693730712
 20
-3.970472546750437
 10
19.86872693730712
 20
-3.905360242079215
 10
19.86872693730712
 20
-3.905360242079215
 10
19.86872693730712
 20
-3.620795354997579
 10
19.86872693730712
 20
-3.620795354997579
 10
19.86872693730712
 20
-3.620795354997579
 10
19.68717040523445
 20
-3.631647405776115
 10
19.68717040523445
 20
-3.631647405776115
 10
19.41965874080481
 20
-3.651628959590565
 10
19.28598903597711
 20
-3.767211913120697
 10
19.28598903597711
 20
-3.978568521140774
 97
        0
 97
        1
330
A5
 92
        1
 93
        1
 72
     4
 94
        3
 73
     0
 74
     0
 95
       65
 96
       61
 40
0.0
 40
0.0
 40
0.0
 40
0.0
 40
1.0
 40
1.0
 40
1.0
 40
2.0
 40
2.0
 40
2.0
 40
3.0
 40
3.0
 40
3.0
 40
4.0
 40
4.0
 40
4.0
 40
5.0
 40
5.0
 40
5.0
 40
6.0
 40
6.0
 40
6.0
 40
7.0
 40
7.0
 40
7.0
 40
8.0
 40
8.0
 40
8.0
 40
9.0
 40
9.0
 40
9.0
 40
10.0
 40
10.0
 40
10.0
 40
11.0
 40
11.0
 40
11.0
 40
12.0
 40
12.0
 40
12.0
 40
13.0
 40
13.0
 40
13.0
 40
14.0
 40
14.0
 40
14.0
 40
15.0
 40
15.0
 40
15.0
 40
16.0
 40
16.0
 40
16.0
 40
17.0
 40
17.0
 40
17.0
 40
18.0
 40
18.0
 40
18.0
 40
19.0
 40
19.0
 40
19.0
 40
20.0
 40
20.0
 40
20.0
 40
20.0
 10
19.12889268184972
 20
-3.986664495531111
 10
19.12889268184972
 20
-3.84765489270128
 10
19.17626274477191
 20
-3.736895072850498
 10
19.27117512539054
 20
-3.65472954552729
 10
19.36591525123491
 20
-3.572564018204081
 10
19.5009629942567
 20
-3.526055229153208
 10
19.67631835445592
 20
-3.515203178374671
 10
19.67631835445592
 20
-3.515203178374671
 10
19.86872693730712
 20
-3.501595051207934
 10
19.86872693730712
 20
-3.501595051207934
 10
19.86872693730712
 20
-3.501595051207934
 10
19.86872693730712
 20
-3.436482746536712
 10
19.86872693730712
 20
-3.436482746536712
 10
19.86872693730712
 20
-3.302813041709018
 10
19.84702283575005
 20
-3.206178113347761
 10
19.8036146326359
 20
-3.146577961452938
 10
19.76037868429602
 20
-3.086977809558116
 10
19.69078775549397
 20
-3.057177733610705
 10
19.59501410100402
 20
-3.057177733610705
 10
19.51181504503524
 20
-3.057177733610705
 10
19.44808077855812
 20
-3.076125758779579
 10
19.40398355634692
 20
-3.114021809117327
 10
19.3595418245872
 20
-3.151917859455076
 10
19.32939723909126
 20
-3.213412813866785
 10
19.31303303553632
 20
-3.298334417578194
 10
19.31303303553632
 20
-3.298334417578194
 10
19.17488470657781
 20
-3.281970214023257
 10
19.17488470657781
 20
-3.281970214023257
 10
19.19469400561799
 20
-3.161047362490988
 10
19.23999701124903
 20
-3.07199164419728
 10
19.31044921392239
 20
-3.015147568690657
 10
19.38090141659575
 20
-2.958131238409773
 10
19.47925889269963
 20
-2.929709200656461
 10
19.60586615178256
 20
-2.929709200656461
 10
19.75038790738879
 20
-2.929709200656461
 10
19.85563557446317
 20
-2.970878091705197
 10
19.92160915300571
 20
-3.053043619028406
 10
19.98741047677398
 20
-3.135209146351614
 10
20.02048339343238
 20
-3.26491699137127
 10
20.02048339343238
 20
-3.441994899313112
 10
20.02048339343238
 20
-3.441994899313112
 10
20.02048339343238
 20
-4.366141763231381
 10
20.02048339343238
 20
-4.366141763231381
 10
20.02048339343238
 20
-4.366141763231381
 10
19.87148301369532
 20
-4.366141763231381
 10
19.87148301369532
 20
-4.366141763231381
 10
19.87148301369532
 20
-4.366141763231381
 10
19.87148301369532
 20
-4.162881129601641
 10
19.87148301369532
 20
-4.162881129601641
 10
19.82618000806429
 20
-4.2388454850514
 10
19.77105848030029
 20
-4.297067598752121
 10
19.70611843040333
 20
-4.33771972547807
 10
19.64100612573211
 20
-4.378371852204018
 10
19.57055392305875
 20
-4.398697915566992
 10
19.49476182238325
 20
-4.398697915566992
 10
19.38090141659575
 20
-4.398697915566992
 10
19.29150118875351
 20
-4.361663139100556
 10
19.22638888408229
 20
-4.287593586167685
 10
19.16127657941107
 20
-4.213524033234813
 10
19.12889268184972
 20
-4.113271754614043
 10
19.12889268184972
 20
-3.986664495531111
 97
        0
 97
        1
330
A6
 75
     2
 76
     1
 98
        1
 10
0.0
 20
0.0
450
        0
451
        0
460
0.0
461
0.0
452
        0
462
0.0
453
        0
470

  0
SPLINE
  5
A8
330
7D
100
AcDbEntity
  8
レイヤー 1
100
AcDbSpline
210
0.0
220
0.0
230
1.0
 70
    11
 71
     3
 72
    17
 73
    13
 74
     0
 42
0.0000000001
 43
0.0000000001
 40
0.0
 40
0.0
 40
0.0
 40
0.0
 40
1.0
 40
1.0
 40
1.0
 40
2.0
 40
2.0
 40
2.0
 40
3.0
 40
3.0
 40
3.0
 40
4.0
 40
4.0
 40
4.0
 40
4.0
 10
20.39444850835625
 20
-2.431031629166547
 30
0.0
 10
20.39444850835625
 20
-2.431031629166547
 30
0.0
 10
20.5462049644815
 20
-2.431031629166547
 30
0.0
 10
20.5462049644815
 20
-2.431031629166547
 30
0.0
 10
20.5462049644815
 20
-2.431031629166547
 30
0.0
 10
20.5462049644815
 20
-4.366141763231381
 30
0.0
 10
20.5462049644815
 20
-4.366141763231381
 30
0.0
 10
20.5462049644815
 20
-4.366141763231381
 30
0.0
 10
20.39444850835625
 20
-4.366141763231381
 30
0.0
 10
20.39444850835625
 20
-4.366141763231381
 30
0.0
 10
20.39444850835625
 20
-4.366141763231381
 30
0.0
 10
20.39444850835625
 20
-2.431031629166547
 30
0.0
 10
20.39444850835625
 20
-2.431031629166547
 30
0.0
  0
HATCH
  5
A9
330
7D
100
AcDbEntity
  8
レイヤー 1
 62
   250
420
  4078137
440
 33554687
100
AcDbHatch
 10
0.0
 20
0.0
 30
0.0
210
0.0
220
0.0
230
1.0
  2
SOLID
 70
     1
 71
     1
 91
        1
 92
        1
 93
        1
 72
     4
 94
        3
 73
     0
 74
     0
 95
       17
 96
       13
 40
0.0
 40
0.0
 40
0.0
 40
0.0
 40
1.0
 40
1.0
 40
1.0
 40
2.0
 40
2.0
 40
2.0
 40
3.0
 40
3.0
 40
3.0
 40
4.0
 40
4.0
 40
4.0
 40
4.0
 10
20.39444850835625
 20
-2.431031629166547
 10
20.39444850835625
 20
-2.431031629166547
 10
20.5462049644815
 20
-2.431031629166547
 10
20.5462049644815
 20
-2.431031629166547
 10
20.5462049644815
 20
-2.431031629166547
 10
20.5462049644815
 20
-4.366141763231381
 10
20.5462049644815
 20
-4.366141763231381
 10
20.5462049644815
 20
-4.366141763231381
 10
20.39444850835625
 20
-4.366141763231381
 10
20.39444850835625
 20
-4.366141763231381
 10
20.39444850835625
 20
-4.366141763231381
 10
20.39444850835625
 20
-2.431031629166547
 10
20.39444850835625
 20
-2.431031629166547
 97
        0
 97
        1
330
A8
 75
     2
 76
     1
 98
        1
 10
0.0
 20
0.0
450
        0
451
        0
460
0.0
461
0.0
452
        0
462
0.0
453
        0
470

  0
SPLINE
  5
AA
330
7D
100
AcDbEntity
  8
レイヤー 1
100
AcDbSpline
210
0.0
220
0.0
230
1.0
 70
    11
 71
     3
 72
    17
 73
    13
 74
     0
 42
0.0000000001
 43
0.0000000001
 40
0.0
 40
0.0
 40
0.0
 40
0.0
 40
1.0
 40
1.0
 40
1.0
 40
2.0
 40
2.0
 40
2.0
 40
3.0
 40
3.0
 40
3.0
 40
4.0
 40
4.0
 40
4.0
 40
4.0
 10
20.93102213018391
 20
-2.431031629166547
 30
0.0
 10
20.93102213018391
 20
-2.431031629166547
 30
0.0
 10
21.08277858630917
 20
-2.431031629166547
 30
0.0
 10
21.08277858630917
 20
-2.431031629166547
 30
0.0
 10
21.08277858630917
 20
-2.431031629166547
 30
0.0
 10
21.08277858630917
 20
-4.366141763231381
 30
0.0
 10
21.08277858630917
 20
-4.366141763231381
 30
0.0
 10
21.08277858630917
 20
-4.366141763231381
 30
0.0
 10
20.93102213018391
 20
-4.366141763231381
 30
0.0
 10
20.93102213018391
 20
-4.366141763231381
 30
0.0
 10
20.93102213018391
 20
-4.366141763231381
 30
0.0
 10
20.93102213018391
 20
-2.431031629166547
 30
0.0
 10
20.93102213018391
 20
-2.431031629166547
 30
0.0
  0
HATCH
  5
AB
330
7D
100
AcDbEntity
  8
レイヤー 1
 62
   250
420
  4078137
440
 33554687
100
AcDbHatch
 10
0.0
 20
0.0
 30
0.0
210
0.0
220
0.0
230
1.0
  2
SOLID
 70
     1
 71
     1
 91
        1
 92
        1
 93
        1
 72
     4
 94
        3
 73
     0
 74
     0
 95
       17
 96
       13
 40
0.0
 40
0.0
 40
0.0
 40
0.0
 40
1.0
 40
1.0
 40
1.0
 40
2.0
 40
2.0
 40
2.0
 40
3.0
 40
3.0
 40
3.0
 40
4.0
 40
4.0
 40
4.0
 40
4.0
 10
20.93102213018391
 20
-2.431031629166547
 10
20.93102213018391
 20
-2.431031629166547
 10
21.08277858630917
 20
-2.431031629166547
 10
21.08277858630917
 20
-2.431031629166547
 10
21.08277858630917
 20
-2.431031629166547
 10
21.08277858630917
 20
-4.366141763231381
 10
21.08277858630917
 20
-4.366141763231381
 10
21.08277858630917
 20
-4.366141763231381
 10
20.93102213018391
 20
-4.366141763231381
 10
20.93102213018391
 20
-4.366141763231381
 10
20.93102213018391
 20
-4.366141763231381
 10
20.93102213018391
 20
-2.431031629166547
 10
20.93102213018391
 20
-2.431031629166547
 97
        0
 97
        1
330
AA
 75
     2
 76
     1
 98
        1
 10
0.0
 20
0.0
450
        0
451
        0
460
0.0
461
0.0
452
        0
462
0.0
453
        0
470

  0
SPLINE
  5
AC
330
7D
100
AcDbEntity
  8
レイヤー 1
100
AcDbSpline
210
0.0
220
0.0
230
1.0
 70
     9
 71
     3
 72
    29
 73
    25
 74
     0
 42
0.0000000001
 43
0.0000000001
 40
0.0
 40
0.0
 40
0.0
 40
0.0
 40
1.0
 40
1.0
 40
1.0
 40
2.0
 40
2.0
 40
2.0
 40
3.0
 40
3.0
 40
3.0
 40
4.0
 40
4.0
 40
4.0
 40
5.0
 40
5.0
 40
5.0
 40
6.0
 40
6.0
 40
6.0
 40
7.0
 40
7.0
 40
7.0
 40
8.0
 40
8.0
 40
8.0
 40
8.0
 10
21.54890000546347
 20
-3.978568521140774
 30
0.0
 10
21.54890000546347
 20
-4.070724825371208
 30
0.0
 10
21.57060410702055
 20
-4.142210556690142
 30
0.0
 10
21.61401231013469
 20
-4.192681205549051
 30
0.0
 10
21.65724825847458
 20
-4.243324109182224
 30
0.0
 10
21.71788193901498
 20
-4.268645560998811
 30
0.0
 10
21.79556884220736
 20
-4.268645560998811
 30
0.0
 10
21.8587863443617
 20
-4.268645560998811
 30
0.0
 10
21.91563041986832
 20
-4.251936847895349
 30
0.0
 10
21.96627332350149
 20
-4.218519421688426
 30
0.0
 10
22.01691622713466
 20
-4.185101995481502
 30
0.0
 10
22.05705158953782
 20
-4.140832518496042
 30
0.0
 10
22.08685166548523
 20
-4.085710990732044
 30
0.0
 10
22.11665174143265
 20
-4.030589462968046
 30
0.0
 10
22.13163790679348
 20
-3.970472546750437
 30
0.0
 10
22.13163790679348
 20
-3.905360242079215
 30
0.0
 10
22.13163790679348
 20
-3.905360242079215
 30
0.0
 10
22.13163790679348
 20
-3.620795354997579
 30
0.0
 10
22.13163790679348
 20
-3.620795354997579
 30
0.0
 10
22.13163790679348
 20
-3.620795354997579
 30
0.0
 10
21.95008137472081
 20
-3.631647405776115
 30
0.0
 10
21.95008137472081
 20
-3.631647405776115
 30
0.0
 10
21.68256971029117
 20
-3.651628959590565
 30
0.0
 10
21.54890000546347
 20
-3.767211913120697
 30
0.0
 10
21.54890000546347
 20
-3.978568521140774
 30
0.0
  0
SPLINE
  5
AD
330
7D
100
AcDbEntity
  8
レイヤー 1
100
AcDbSpline
210
0.0
220
0.0
230
1.0
 70
     9
 71
     3
 72
    65
 73
    61
 74
     0
 42
0.0000000001
 43
0.0000000001
 40
0.0
 40
0.0
 40
0.0
 40
0.0
 40
1.0
 40
1.0
 40
1.0
 40
2.0
 40
2.0
 40
2.0
 40
3.0
 40
3.0
 40
3.0
 40
4.0
 40
4.0
 40
4.0
 40
5.0
 40
5.0
 40
5.0
 40
6.0
 40
6.0
 40
6.0
 40
7.0
 40
7.0
 40
7.0
 40
8.0
 40
8.0
 40
8.0
 40
9.0
 40
9.0
 40
9.0
 40
10.0
 40
10.0
 40
10.0
 40
11.0
 40
11.0
 40
11.0
 40
12.0
 40
12.0
 40
12.0
 40
13.0
 40
13.0
 40
13.0
 40
14.0
 40
14.0
 40
14.0
 40
15.0
 40
15.0
 40
15.0
 40
16.0
 40
16.0
 40
16.0
 40
17.0
 40
17.0
 40
17.0
 40
18.0
 40
18.0
 40
18.0
 40
19.0
 40
19.0
 40
19.0
 40
20.0
 40
20.0
 40
20.0
 40
20.0
 10
21.39180365133608
 20
-3.986664495531111
 30
0.0
 10
21.39180365133608
 20
-3.84765489270128
 30
0.0
 10
21.43917371425827
 20
-3.736895072850498
 30
0.0
 10
21.5340860948769
 20
-3.65472954552729
 30
0.0
 10
21.62882622072126
 20
-3.572564018204081
 30
0.0
 10
21.76387396374306
 20
-3.526055229153208
 30
0.0
 10
21.93922932394228
 20
-3.515203178374671
 30
0.0
 10
21.93922932394228
 20
-3.515203178374671
 30
0.0
 10
22.13163790679348
 20
-3.501595051207934
 30
0.0
 10
22.13163790679348
 20
-3.501595051207934
 30
0.0
 10
22.13163790679348
 20
-3.501595051207934
 30
0.0
 10
22.13163790679348
 20
-3.436482746536712
 30
0.0
 10
22.13163790679348
 20
-3.436482746536712
 30
0.0
 10
22.13163790679348
 20
-3.302813041709018
 30
0.0
 10
22.10993380523641
 20
-3.206178113347761
 30
0.0
 10
22.06652560212226
 20
-3.146577961452938
 30
0.0
 10
22.02328965378237
 20
-3.086977809558116
 30
0.0
 10
21.95369872498033
 20
-3.057177733610705
 30
0.0
 10
21.85792507049038
 20
-3.057177733610705
 30
0.0
 10
21.7747260145216
 20
-3.057177733610705
 30
0.0
 10
21.71099174804448
 20
-3.076125758779579
 30
0.0
 10
21.66689452583328
 20
-3.114021809117327
 30
0.0
 10
21.62245279407355
 20
-3.151917859455076
 30
0.0
 10
21.59230820857762
 20
-3.213412813866785
 30
0.0
 10
21.57594400502268
 20
-3.298334417578194
 30
0.0
 10
21.57594400502268
 20
-3.298334417578194
 30
0.0
 10
21.43779567606416
 20
-3.281970214023257
 30
0.0
 10
21.43779567606416
 20
-3.281970214023257
 30
0.0
 10
21.45760497510435
 20
-3.161047362490988
 30
0.0
 10
21.50290798073539
 20
-3.07199164419728
 30
0.0
 10
21.57336018340874
 20
-3.015147568690657
 30
0.0
 10
21.64381238608211
 20
-2.958131238409773
 30
0.0
 10
21.74216986218599
 20
-2.929709200656461
 30
0.0
 10
21.86877712126892
 20
-2.929709200656461
 30
0.0
 10
22.01329887687515
 20
-2.929709200656461
 30
0.0
 10
22.11854654394953
 20
-2.970878091705197
 30
0.0
 10
22.18452012249207
 20
-3.053043619028406
 30
0.0
 10
22.25032144626034
 20
-3.135209146351614
 30
0.0
 10
22.28339436291873
 20
-3.26491699137127
 30
0.0
 10
22.28339436291873
 20
-3.441994899313112
 30
0.0
 10
22.28339436291873
 20
-3.441994899313112
 30
0.0
 10
22.28339436291873
 20
-4.366141763231381
 30
0.0
 10
22.28339436291873
 20
-4.366141763231381
 30
0.0
 10
22.28339436291873
 20
-4.366141763231381
 30
0.0
 10
22.13439398318168
 20
-4.366141763231381
 30
0.0
 10
22.13439398318168
 20
-4.366141763231381
 30
0.0
 10
22.13439398318168
 20
-4.366141763231381
 30
0.0
 10
22.13439398318168
 20
-4.162881129601641
 30
0.0
 10
22.13439398318168
 20
-4.162881129601641
 30
0.0
 10
22.08909097755064
 20
-4.2388454850514
 30
0.0
 10
22.03396944978665
 20
-4.297067598752121
 30
0.0
 10
21.96902939988969
 20
-4.33771972547807
 30
0.0
 10
21.90391709521847
 20
-4.378371852204018
 30
0.0
 10
21.8334648925451
 20
-4.398697915566992
 30
0.0
 10
21.75767279186961
 20
-4.398697915566992
 30
0.0
 10
21.64381238608211
 20
-4.398697915566992
 30
0.0
 10
21.55441215823987
 20
-4.361663139100556
 30
0.0
 10
21.48929985356865
 20
-4.287593586167685
 30
0.0
 10
21.42418754889742
 20
-4.213524033234813
 30
0.0
 10
21.39180365133608
 20
-4.113271754614043
 30
0.0
 10
21.39180365133608
 20
-3.986664495531111
 30
0.0
  0
HATCH
  5
AE
330
7D
100
AcDbEntity
  8
レイヤー 1
 62
   250
420
  4078137
440
 33554687
100
AcDbHatch
 10
0.0
 20
0.0
 30
0.0
210
0.0
220
0.0
230
1.0
  2
SOLID
 70
     1
 71
     1
 91
        2
 92
        1
 93
        1
 72
     4
 94
        3
 73
     0
 74
     0
 95
       29
 96
       25
 40
0.0
 40
0.0
 40
0.0
 40
0.0
 40
1.0
 40
1.0
 40
1.0
 40
2.0
 40
2.0
 40
2.0
 40
3.0
 40
3.0
 40
3.0
 40
4.0
 40
4.0
 40
4.0
 40
5.0
 40
5.0
 40
5.0
 40
6.0
 40
6.0
 40
6.0
 40
7.0
 40
7.0
 40
7.0
 40
8.0
 40
8.0
 40
8.0
 40
8.0
 10
21.54890000546347
 20
-3.978568521140774
 10
21.54890000546347
 20
-4.070724825371208
 10
21.57060410702055
 20
-4.142210556690142
 10
21.61401231013469
 20
-4.192681205549051
 10
21.65724825847458
 20
-4.243324109182224
 10
21.71788193901498
 20
-4.268645560998811
 10
21.79556884220736
 20
-4.268645560998811
 10
21.8587863443617
 20
-4.268645560998811
 10
21.91563041986832
 20
-4.251936847895349
 10
21.96627332350149
 20
-4.218519421688426
 10
22.01691622713466
 20
-4.185101995481502
 10
22.05705158953782
 20
-4.140832518496042
 10
22.08685166548523
 20
-4.085710990732044
 10
22.11665174143265
 20
-4.030589462968046
 10
22.13163790679348
 20
-3.970472546750437
 10
22.13163790679348
 20
-3.905360242079215
 10
22.13163790679348
 20
-3.905360242079215
 10
22.13163790679348
 20
-3.620795354997579
 10
22.13163790679348
 20
-3.620795354997579
 10
22.13163790679348
 20
-3.620795354997579
 10
21.95008137472081
 20
-3.631647405776115
 10
21.95008137472081
 20
-3.631647405776115
 10
21.68256971029117
 20
-3.651628959590565
 10
21.54890000546347
 20
-3.767211913120697
 10
21.54890000546347
 20
-3.978568521140774
 97
        0
 97
        1
330
AC
 92
        1
 93
        1
 72
     4
 94
        3
 73
     0
 74
     0
 95
       65
 96
       61
 40
0.0
 40
0.0
 40
0.0
 40
0.0
 40
1.0
 40
1.0
 40
1.0
 40
2.0
 40
2.0
 40
2.0
 40
3.0
 40
3.0
 40
3.0
 40
4.0
 40
4.0
 40
4.0
 40
5.0
 40
5.0
 40
5.0
 40
6.0
 40
6.0
 40
6.0
 40
7.0
 40
7.0
 40
7.0
 40
8.0
 40
8.0
 40
8.0
 40
9.0
 40
9.0
 40
9.0
 40
10.0
 40
10.0
 40
10.0
 40
11.0
 40
11.0
 40
11.0
 40
12.0
 40
12.0
 40
12.0
 40
13.0
 40
13.0
 40
13.0
 40
14.0
 40
14.0
 40
14.0
 40
15.0
 40
15.0
 40
15.0
 40
16.0
 40
16.0
 40
16.0
 40
17.0
 40
17.0
 40
17.0
 40
18.0
 40
18.0
 40
18.0
 40
19.0
 40
19.0
 40
19.0
 40
20.0
 40
20.0
 40
20.0
 40
20.0
 10
21.39180365133608
 20
-3.986664495531111
 10
21.39180365133608
 20
-3.84765489270128
 10
21.43917371425827
 20
-3.736895072850498
 10
21.5340860948769
 20
-3.65472954552729
 10
21.62882622072126
 20
-3.572564018204081
 10
21.76387396374306
 20
-3.526055229153208
 10
21.93922932394228
 20
-3.515203178374671
 10
21.93922932394228
 20
-3.515203178374671
 10
22.13163790679348
 20
-3.501595051207934
 10
22.13163790679348
 20
-3.501595051207934
 10
22.13163790679348
 20
-3.501595051207934
 10
22.13163790679348
 20
-3.436482746536712
 10
22.13163790679348
 20
-3.436482746536712
 10
22.13163790679348
 20
-3.302813041709018
 10
22.10993380523641
 20
-3.206178113347761
 10
22.06652560212226
 20
-3.146577961452938
 10
22.02328965378237
 20
-3.086977809558116
 10
21.95369872498033
 20
-3.057177733610705
 10
21.85792507049038
 20
-3.057177733610705
 10
21.7747260145216
 20
-3.057177733610705
 10
21.71099174804448
 20
-3.076125758779579
 10
21.66689452583328
 20
-3.114021809117327
 10
21.62245279407355
 20
-3.151917859455076
 10
21.59230820857762
 20
-3.213412813866785
 10
21.57594400502268
 20
-3.298334417578194
 10
21.57594400502268
 20
-3.298334417578194
 10
21.43779567606416
 20
-3.281970214023257
 10
21.43779567606416
 20
-3.281970214023257
 10
21.45760497510435
 20
-3.161047362490988
 10
21.50290798073539
 20
-3.07199164419728
 10
21.57336018340874
 20
-3.015147568690657
 10
21.64381238608211
 20
-2.958131238409773
 10
21.74216986218599
 20
-2.929709200656461
 10
21.86877712126892
 20
-2.929709200656461
 10
22.01329887687515
 20
-2.929709200656461
 10
22.11854654394953
 20
-2.970878091705197
 10
22.18452012249207
 20
-3.053043619028406
 10
22.25032144626034
 20
-3.135209146351614
 10
22.28339436291873
 20
-3.26491699137127
 10
22.28339436291873
 20
-3.441994899313112
 10
22.28339436291873
 20
-3.441994899313112
 10
22.28339436291873
 20
-4.366141763231381
 10
22.28339436291873
 20
-4.366141763231381
 10
22.28339436291873
 20
-4.366141763231381
 10
22.13439398318168
 20
-4.366141763231381
 10
22.13439398318168
 20
-4.366141763231381
 10
22.13439398318168
 20
-4.366141763231381
 10
22.13439398318168
 20
-4.162881129601641
 10
22.13439398318168
 20
-4.162881129601641
 10
22.08909097755064
 20
-4.2388454850514
 10
22.03396944978665
 20
-4.297067598752121
 10
21.96902939988969
 20
-4.33771972547807
 10
21.90391709521847
 20
-4.378371852204018
 10
21.8334648925451
 20
-4.398697915566992
 10
21.75767279186961
 20
-4.398697915566992
 10
21.64381238608211
 20
-4.398697915566992
 10
21.55441215823987
 20
-4.361663139100556
 10
21.48929985356865
 20
-4.287593586167685
 10
21.42418754889742
 20
-4.213524033234813
 10
21.39180365133608
 20
-4.113271754614043
 10
21.39180365133608
 20
-3.986664495531111
 97
        0
 97
        1
330
AD
 75
     2
 76
     1
 98
        1
 10
0.0
 20
0.0
450
        0
451
        0
460
0.0
461
0.0
452
        0
462
0.0
453
        0
470

  0
SPLINE
  5
AF
330
7D
100
AcDbEntity
  8
レイヤー 1
100
AcDbSpline
210
0.0
220
0.0
230
1.0
 70
     9
 71
     3
 72
    56
 73
    52
 74
     0
 42
0.0000000001
 43
0.0000000001
 40
0.0
 40
0.0
 40
0.0
 40
0.0
 40
1.0
 40
1.0
 40
1.0
 40
2.0
 40
2.0
 40
2.0
 40
3.0
 40
3.0
 40
3.0
 40
4.0
 40
4.0
 40
4.0
 40
5.0
 40
5.0
 40
5.0
 40
6.0
 40
6.0
 40
6.0
 40
7.0
 40
7.0
 40
7.0
 40
8.0
 40
8.0
 40
8.0
 40
9.0
 40
9.0
 40
9.0
 40
10.0
 40
10.0
 40
10.0
 40
11.0
 40
11.0
 40
11.0
 40
12.0
 40
12.0
 40
12.0
 40
13.0
 40
13.0
 40
13.0
 40
14.0
 40
14.0
 40
14.0
 40
15.0
 40
15.0
 40
15.0
 40
16.0
 40
16.0
 40
16.0
 40
17.0
 40
17.0
 40
17.0
 40
17.0
 10
22.68181965578788
 20
-4.030072698645259
 30
0.0
 10
22.68181965578788
 20
-4.030072698645259
 30
0.0
 10
22.68181965578788
 20
-3.097829860336653
 30
0.0
 10
22.68181965578788
 20
-3.097829860336653
 30
0.0
 10
22.68181965578788
 20
-3.097829860336653
 30
0.0
 10
22.50560302171735
 20
-3.097829860336653
 30
0.0
 10
22.50560302171735
 20
-3.097829860336653
 30
0.0
 10
22.50560302171735
 20
-3.097829860336653
 30
0.0
 10
22.50560302171735
 20
-2.973117403770609
 30
0.0
 10
22.50560302171735
 20
-2.973117403770609
 30
0.0
 10
22.50560302171735
 20
-2.973117403770609
 30
0.0
 10
22.68181965578788
 20
-2.973117403770609
 30
0.0
 10
22.68181965578788
 20
-2.973117403770609
 30
0.0
 10
22.68181965578788
 20
-2.973117403770609
 30
0.0
 10
22.68181965578788
 20
-2.588300238068202
 30
0.0
 10
22.68181965578788
 20
-2.588300238068202
 30
0.0
 10
22.68181965578788
 20
-2.588300238068202
 30
0.0
 10
22.83357611191314
 20
-2.588300238068202
 30
0.0
 10
22.83357611191314
 20
-2.588300238068202
 30
0.0
 10
22.83357611191314
 20
-2.588300238068202
 30
0.0
 10
22.83357611191314
 20
-2.973117403770609
 30
0.0
 10
22.83357611191314
 20
-2.973117403770609
 30
0.0
 10
22.83357611191314
 20
-2.973117403770609
 30
0.0
 10
23.13708902416365
 20
-2.973117403770609
 30
0.0
 10
23.13708902416365
 20
-2.973117403770609
 30
0.0
 10
23.13708902416365
 20
-2.973117403770609
 30
0.0
 10
23.13708902416365
 20
-3.097829860336653
 30
0.0
 10
23.13708902416365
 20
-3.097829860336653
 30
0.0
 10
23.13708902416365
 20
-3.097829860336653
 30
0.0
 10
22.83357611191314
 20
-3.097829860336653
 30
0.0
 10
22.83357611191314
 20
-3.097829860336653
 30
0.0
 10
22.83357611191314
 20
-3.097829860336653
 30
0.0
 10
22.83357611191314
 20
-4.040924749423797
 30
0.0
 10
22.83357611191314
 20
-4.040924749423797
 30
0.0
 10
22.83357611191314
 20
-4.190958657806427
 30
0.0
 10
22.88869763967714
 20
-4.26588948461061
 30
0.0
 10
22.99894069520513
 20
-4.26588948461061
 30
0.0
 10
23.0440714460619
 20
-4.26588948461061
 30
0.0
 10
23.08920219691867
 20
-4.255037433832074
 30
0.0
 10
23.13433294777544
 20
-4.233333332275
 30
0.0
 10
23.13433294777544
 20
-4.233333332275
 30
0.0
 10
23.16413302372286
 20
-4.349949814450707
 30
0.0
 10
23.16413302372286
 20
-4.349949814450707
 30
0.0
 10
23.0991929738259
 20
-4.38061116426943
 30
0.0
 10
23.03321939528336
 20
-4.395941839178792
 30
0.0
 10
22.96638454286952
 20
-4.395941839178792
 30
0.0
 10
22.87422823863908
 20
-4.395941839178792
 30
0.0
 10
22.80377603596572
 20
-4.364419215488756
 30
0.0
 10
22.75502793484944
 20
-4.301029458560159
 30
0.0
 10
22.70610757895889
 20
-4.237811956405825
 30
0.0
 10
22.68181965578788
 20
-4.147550454692279
 30
0.0
 10
22.68181965578788
 20
-4.030072698645259
 30
0.0
  0
HATCH
  5
B0
330
7D
100
AcDbEntity
  8
レイヤー 1
 62
   250
420
  4078137
440
 33554687
100
AcDbHatch
 10
0.0
 20
0.0
 30
0.0
210
0.0
220
0.0
230
1.0
  2
SOLID
 70
     1
 71
     1
 91
        1
 92
        1
 93
        1
 72
     4
 94
        3
 73
     0
 74
     0
 95
       56
 96
       52
 40
0.0
 40
0.0
 40
0.0
 40
0.0
 40
1.0
 40
1.0
 40
1.0
 40
2.0
 40
2.0
 40
2.0
 40
3.0
 40
3.0
 40
3.0
 40
4.0
 40
4.0
 40
4.0
 40
5.0
 40
5.0
 40
5.0
 40
6.0
 40
6.0
 40
6.0
 40
7.0
 40
7.0
 40
7.0
 40
8.0
 40
8.0
 40
8.0
 40
9.0
 40
9.0
 40
9.0
 40
10.0
 40
10.0
 40
10.0
 40
11.0
 40
11.0
 40
11.0
 40
12.0
 40
12.0
 40
12.0
 40
13.0
 40
13.0
 40
13.0
 40
14.0
 40
14.0
 40
14.0
 40
15.0
 40
15.0
 40
15.0
 40
16.0
 40
16.0
 40
16.0
 40
17.0
 40
17.0
 40
17.0
 40
17.0
 10
22.68181965578788
 20
-4.030072698645259
 10
22.68181965578788
 20
-4.030072698645259
 10
22.68181965578788
 20
-3.097829860336653
 10
22.68181965578788
 20
-3.097829860336653
 10
22.68181965578788
 20
-3.097829860336653
 10
22.50560302171735
 20
-3.097829860336653
 10
22.50560302171735
 20
-3.097829860336653
 10
22.50560302171735
 20
-3.097829860336653
 10
22.50560302171735
 20
-2.973117403770609
 10
22.50560302171735
 20
-2.973117403770609
 10
22.50560302171735
 20
-2.973117403770609
 10
22.68181965578788
 20
-2.973117403770609
 10
22.68181965578788
 20
-2.973117403770609
 10
22.68181965578788
 20
-2.973117403770609
 10
22.68181965578788
 20
-2.588300238068202
 10
22.68181965578788
 20
-2.588300238068202
 10
22.68181965578788
 20
-2.588300238068202
 10
22.83357611191314
 20
-2.588300238068202
 10
22.83357611191314
 20
-2.588300238068202
 10
22.83357611191314
 20
-2.588300238068202
 10
22.83357611191314
 20
-2.973117403770609
 10
22.83357611191314
 20
-2.973117403770609
 10
22.83357611191314
 20
-2.973117403770609
 10
23.13708902416365
 20
-2.973117403770609
 10
23.13708902416365
 20
-2.973117403770609
 10
23.13708902416365
 20
-2.973117403770609
 10
23.13708902416365
 20
-3.097829860336653
 10
23.13708902416365
 20
-3.097829860336653
 10
23.13708902416365
 20
-3.097829860336653
 10
22.83357611191314
 20
-3.097829860336653
 10
22.83357611191314
 20
-3.097829860336653
 10
22.83357611191314
 20
-3.097829860336653
 10
22.83357611191314
 20
-4.040924749423797
 10
22.83357611191314
 20
-4.040924749423797
 10
22.83357611191314
 20
-4.190958657806427
 10
22.88869763967714
 20
-4.26588948461061
 10
22.99894069520513
 20
-4.26588948461061
 10
23.0440714460619
 20
-4.26588948461061
 10
23.08920219691867
 20
-4.255037433832074
 10
23.13433294777544
 20
-4.233333332275
 10
23.13433294777544
 20
-4.233333332275
 10
23.16413302372286
 20
-4.349949814450707
 10
23.16413302372286
 20
-4.349949814450707
 10
23.0991929738259
 20
-4.38061116426943
 10
23.03321939528336
 20
-4.395941839178792
 10
22.96638454286952
 20
-4.395941839178792
 10
22.87422823863908
 20
-4.395941839178792
 10
22.80377603596572
 20
-4.364419215488756
 10
22.75502793484944
 20
-4.301029458560159
 10
22.70610757895889
 20
-4.237811956405825
 10
22.68181965578788
 20
-4.147550454692279
 10
22.68181965578788
 20
-4.030072698645259
 97
        0
 97
        1
330
AF
 75
     2
 76
     1
 98
        1
 10
0.0
 20
0.0
450
        0
451
        0
460
0.0
461
0.0
452
        0
462
0.0
453
        0
470

  0
SPLINE
  5
B1
330
7D
100
AcDbEntity
  8
レイヤー 1
100
AcDbSpline
210
0.0
220
0.0
230
1.0
 70
    11
 71
     3
 72
    17
 73
    13
 74
     0
 42
0.0000000001
 43
0.0000000001
 40
0.0
 40
0.0
 40
0.0
 40
0.0
 40
1.0
 40
1.0
 40
1.0
 40
2.0
 40
2.0
 40
2.0
 40
3.0
 40
3.0
 40
3.0
 40
4.0
 40
4.0
 40
4.0
 40
4.0
 10
23.38909775890967
 20
-2.973117403770609
 30
0.0
 10
23.38909775890967
 20
-2.973117403770609
 30
0.0
 10
23.54085421503492
 20
-2.973117403770609
 30
0.0
 10
23.54085421503492
 20
-2.973117403770609
 30
0.0
 10
23.54085421503492
 20
-2.973117403770609
 30
0.0
 10
23.54085421503492
 20
-4.366141763231381
 30
0.0
 10
23.54085421503492
 20
-4.366141763231381
 30
0.0
 10
23.54085421503492
 20
-4.366141763231381
 30
0.0
 10
23.38909775890967
 20
-4.366141763231381
 30
0.0
 10
23.38909775890967
 20
-4.366141763231381
 30
0.0
 10
23.38909775890967
 20
-4.366141763231381
 30
0.0
 10
23.38909775890967
 20
-2.973117403770609
 30
0.0
 10
23.38909775890967
 20
-2.973117403770609
 30
0.0
  0
SPLINE
  5
B2
330
7D
100
AcDbEntity
  8
レイヤー 1
100
AcDbSpline
210
0.0
220
0.0
230
1.0
 70
    11
 71
     3
 72
    17
 73
    13
 74
     0
 42
0.0000000001
 43
0.0000000001
 40
0.0
 40
0.0
 40
0.0
 40
0.0
 40
1.0
 40
1.0
 40
1.0
 40
2.0
 40
2.0
 40
2.0
 40
3.0
 40
3.0
 40
3.0
 40
4.0
 40
4.0
 40
4.0
 40
4.0
 10
23.38634168252147
 20
-2.431031629166547
 30
0.0
 10
23.38634168252147
 20
-2.431031629166547
 30
0.0
 10
23.54636636781133
 20
-2.431031629166547
 30
0.0
 10
23.54636636781133
 20
-2.431031629166547
 30
0.0
 10
23.54636636781133
 20
-2.431031629166547
 30
0.0
 10
23.54636636781133
 20
-2.69389241469111
 30
0.0
 10
23.54636636781133
 20
-2.69389241469111
 30
0.0
 10
23.54636636781133
 20
-2.69389241469111
 30
0.0
 10
23.38634168252147
 20
-2.69389241469111
 30
0.0
 10
23.38634168252147
 20
-2.69389241469111
 30
0.0
 10
23.38634168252147
 20
-2.69389241469111
 30
0.0
 10
23.38634168252147
 20
-2.431031629166547
 30
0.0
 10
23.38634168252147
 20
-2.431031629166547
 30
0.0
  0
HATCH
  5
B3
330
7D
100
AcDbEntity
  8
レイヤー 1
 62
   250
420
  4078137
440
 33554687
100
AcDbHatch
 10
0.0
 20
0.0
 30
0.0
210
0.0
220
0.0
230
1.0
  2
SOLID
 70
     1
 71
     1
 91
        2
 92
        1
 93
        1
 72
     4
 94
        3
 73
     0
 74
     0
 95
       17
 96
       13
 40
0.0
 40
0.0
 40
0.0
 40
0.0
 40
1.0
 40
1.0
 40
1.0
 40
2.0
 40
2.0
 40
2.0
 40
3.0
 40
3.0
 40
3.0
 40
4.0
 40
4.0
 40
4.0
 40
4.0
 10
23.38909775890967
 20
-2.973117403770609
 10
23.38909775890967
 20
-2.973117403770609
 10
23.54085421503492
 20
-2.973117403770609
 10
23.54085421503492
 20
-2.973117403770609
 10
23.54085421503492
 20
-2.973117403770609
 10
23.54085421503492
 20
-4.366141763231381
 10
23.54085421503492
 20
-4.366141763231381
 10
23.54085421503492
 20
-4.366141763231381
 10
23.38909775890967
 20
-4.366141763231381
 10
23.38909775890967
 20
-4.366141763231381
 10
23.38909775890967
 20
-4.366141763231381
 10
23.38909775890967
 20
-2.973117403770609
 10
23.38909775890967
 20
-2.973117403770609
 97
        0
 97
        1
330
B1
 92
        1
 93
        1
 72
     4
 94
        3
 73
     0
 74
     0
 95
       17
 96
       13
 40
0.0
 40
0.0
 40
0.0
 40
0.0
 40
1.0
 40
1.0
 40
1.0
 40
2.0
 40
2.0
 40
2.0
 40
3.0
 40
3.0
 40
3.0
 40
4.0
 40
4.0
 40
4.0
 40
4.0
 10
23.38634168252147
 20
-2.431031629166547
 10
23.38634168252147
 20
-2.431031629166547
 10
23.54636636781133
 20
-2.431031629166547
 10
23.54636636781133
 20
-2.431031629166547
 10
23.54636636781133
 20
-2.431031629166547
 10
23.54636636781133
 20
-2.69389241469111
 10
23.54636636781133
 20
-2.69389241469111
 10
23.54636636781133
 20
-2.69389241469111
 10
23.38634168252147
 20
-2.69389241469111
 10
23.38634168252147
 20
-2.69389241469111
 10
23.38634168252147
 20
-2.69389241469111
 10
23.38634168252147
 20
-2.431031629166547
 10
23.38634168252147
 20
-2.431031629166547
 97
        0
 97
        1
330
B2
 75
     2
 76
     1
 98
        1
 10
0.0
 20
0.0
450
        0
451
        0
460
0.0
461
0.0
452
        0
462
0.0
453
        0
470

  0
SPLINE
  5
B4
330
7D
100
AcDbEntity
  8
レイヤー 1
100
AcDbSpline
210
0.0
220
0.0
230
1.0
 70
     9
 71
     3
 72
    23
 73
    19
 74
     0
 42
0.0000000001
 43
0.0000000001
 40
0.0
 40
0.0
 40
0.0
 40
0.0
 40
1.0
 40
1.0
 40
1.0
 40
2.0
 40
2.0
 40
2.0
 40
3.0
 40
3.0
 40
3.0
 40
4.0
 40
4.0
 40
4.0
 40
5.0
 40
5.0
 40
5.0
 40
6.0
 40
6.0
 40
6.0
 40
6.0
 10
24.01782768496777
 20
-3.669543456113864
 30
0.0
 10
24.01782768496777
 20
-4.076064723373344
 30
0.0
 10
24.1306545621097
 20
-4.279497611777347
 30
0.0
 10
24.35665282594209
 20
-4.279497611777347
 30
0.0
 10
24.4705132317296
 20
-4.279497611777347
 30
0.0
 10
24.55526258066675
 20
-4.2291992176927
 30
0.0
 10
24.61141763707632
 20
-4.12894693907193
 30
0.0
 10
24.66740043871162
 20
-4.02869466045116
 30
0.0
 10
24.69530571214215
 20
-3.874698892260492
 30
0.0
 10
24.69530571214215
 20
-3.666959634499927
 30
0.0
 10
24.69530571214215
 20
-3.26216091498307
 30
0.0
 10
24.58247883500022
 20
-3.059761555224643
 30
0.0
 10
24.35665282594209
 20
-3.059761555224643
 30
0.0
 10
24.24089761763769
 20
-3.059761555224643
 30
0.0
 10
24.15563150437776
 20
-3.109543184986503
 30
0.0
 10
24.10050997661376
 20
-3.20893418973596
 30
0.0
 10
24.04538844884977
 20
-3.308325194485418
 30
0.0
 10
24.01782768496777
 20
-3.461804198353299
 30
0.0
 10
24.01782768496777
 20
-3.669543456113864
 30
0.0
  0
SPLINE
  5
B5
330
7D
100
AcDbEntity
  8
レイヤー 1
100
AcDbSpline
210
0.0
220
0.0
230
1.0
 70
     9
 71
     3
 72
    23
 73
    19
 74
     0
 42
0.0000000001
 43
0.0000000001
 40
0.0
 40
0.0
 40
0.0
 40
0.0
 40
1.0
 40
1.0
 40
1.0
 40
2.0
 40
2.0
 40
2.0
 40
3.0
 40
3.0
 40
3.0
 40
4.0
 40
4.0
 40
4.0
 40
5.0
 40
5.0
 40
5.0
 40
6.0
 40
6.0
 40
6.0
 40
6.0
 10
23.85797525445218
 20
-3.669543456113864
 30
0.0
 10
23.85797525445218
 20
-3.427525498275063
 30
0.0
 10
23.90034992892075
 20
-3.243729654136984
 30
0.0
 10
23.98527153263215
 20
-3.118155923699627
 30
0.0
 10
24.07019313634357
 20
-2.992582193262271
 30
0.0
 10
24.1940443190383
 20
-2.929709200656461
 30
0.0
 10
24.35665282594209
 20
-2.929709200656461
 30
0.0
 10
24.6891045402687
 20
-2.929709200656461
 30
0.0
 10
24.855330397432
 20
-3.175516763529037
 30
0.0
 10
24.855330397432
 20
-3.666959634499927
 30
0.0
 10
24.855330397432
 20
-3.907255044596102
 30
0.0
 10
24.81278346818917
 20
-4.091050888734182
 30
0.0
 10
24.72786186447776
 20
-4.218519421688426
 30
0.0
 10
24.64294026076635
 20
-4.345815699868407
 30
0.0
 10
24.51822780420031
 20
-4.409549966345529
 30
0.0
 10
24.35389674955389
 20
-4.409549966345529
 30
0.0
 10
24.02333983774417
 20
-4.409549966345529
 30
0.0
 10
23.85797525445218
 20
-4.162881129601641
 30
0.0
 10
23.85797525445218
 20
-3.669543456113864
 30
0.0
  0
HATCH
  5
B6
330
7D
100
AcDbEntity
  8
レイヤー 1
 62
   250
420
  4078137
440
 33554687
100
AcDbHatch
 10
0.0
 20
0.0
 30
0.0
210
0.0
220
0.0
230
1.0
  2
SOLID
 70
     1
 71
     1
 91
        2
 92
        1
 93
        1
 72
     4
 94
        3
 73
     0
 74
     0
 95
       23
 96
       19
 40
0.0
 40
0.0
 40
0.0
 40
0.0
 40
1.0
 40
1.0
 40
1.0
 40
2.0
 40
2.0
 40
2.0
 40
3.0
 40
3.0
 40
3.0
 40
4.0
 40
4.0
 40
4.0
 40
5.0
 40
5.0
 40
5.0
 40
6.0
 40
6.0
 40
6.0
 40
6.0
 10
24.01782768496777
 20
-3.669543456113864
 10
24.01782768496777
 20
-4.076064723373344
 10
24.1306545621097
 20
-4.279497611777347
 10
24.35665282594209
 20
-4.279497611777347
 10
24.4705132317296
 20
-4.279497611777347
 10
24.55526258066675
 20
-4.2291992176927
 10
24.61141763707632
 20
-4.12894693907193
 10
24.66740043871162
 20
-4.02869466045116
 10
24.69530571214215
 20
-3.874698892260492
 10
24.69530571214215
 20
-3.666959634499927
 10
24.69530571214215
 20
-3.26216091498307
 10
24.58247883500022
 20
-3.059761555224643
 10
24.35665282594209
 20
-3.059761555224643
 10
24.24089761763769
 20
-3.059761555224643
 10
24.15563150437776
 20
-3.109543184986503
 10
24.10050997661376
 20
-3.20893418973596
 10
24.04538844884977
 20
-3.308325194485418
 10
24.01782768496777
 20
-3.461804198353299
 10
24.01782768496777
 20
-3.669543456113864
 97
        0
 97
        1
330
B4
 92
        1
 93
        1
 72
     4
 94
        3
 73
     0
 74
     0
 95
       23
 96
       19
 40
0.0
 40
0.0
 40
0.0
 40
0.0
 40
1.0
 40
1.0
 40
1.0
 40
2.0
 40
2.0
 40
2.0
 40
3.0
 40
3.0
 40
3.0
 40
4.0
 40
4.0
 40
4.0
 40
5.0
 40
5.0
 40
5.0
 40
6.0
 40
6.0
 40
6.0
 40
6.0
 10
23.85797525445218
 20
-3.669543456113864
 10
23.85797525445218
 20
-3.427525498275063
 10
23.90034992892075
 20
-3.243729654136984
 10
23.98527153263215
 20
-3.118155923699627
 10
24.07019313634357
 20
-2.992582193262271
 10
24.1940443190383
 20
-2.929709200656461
 10
24.35665282594209
 20
-2.929709200656461
 10
24.6891045402687
 20
-2.929709200656461
 10
24.855330397432
 20
-3.175516763529037
 10
24.855330397432
 20
-3.666959634499927
 10
24.855330397432
 20
-3.907255044596102
 10
24.81278346818917
 20
-4.091050888734182
 10
24.72786186447776
 20
-4.218519421688426
 10
24.64294026076635
 20
-4.345815699868407
 10
24.51822780420031
 20
-4.409549966345529
 10
24.35389674955389
 20
-4.409549966345529
 10
24.02333983774417
 20
-4.409549966345529
 10
23.85797525445218
 20
-4.162881129601641
 10
23.85797525445218
 20
-3.669543456113864
 97
        0
 97
        1
330
B5
 75
     2
 76
     1
 98
        1
 10
0.0
 20
0.0
450
        0
451
        0
460
0.0
461
0.0
452
        0
462
0.0
453
        0
470

  0
SPLINE
  5
B7
330
7D
100
AcDbEntity
  8
レイヤー 1
100
AcDbSpline
210
0.0
220
0.0
230
1.0
 70
    11
 71
     3
 72
    56
 73
    52
 74
     0
 42
0.0000000001
 43
0.0000000001
 40
0.0
 40
0.0
 40
0.0
 40
0.0
 40
1.0
 40
1.0
 40
1.0
 40
2.0
 40
2.0
 40
2.0
 40
3.0
 40
3.0
 40
3.0
 40
4.0
 40
4.0
 40
4.0
 40
5.0
 40
5.0
 40
5.0
 40
6.0
 40
6.0
 40
6.0
 40
7.0
 40
7.0
 40
7.0
 40
8.0
 40
8.0
 40
8.0
 40
9.0
 40
9.0
 40
9.0
 40
10.0
 40
10.0
 40
10.0
 40
11.0
 40
11.0
 40
11.0
 40
12.0
 40
12.0
 40
12.0
 40
13.0
 40
13.0
 40
13.0
 40
14.0
 40
14.0
 40
14.0
 40
15.0
 40
15.0
 40
15.0
 40
16.0
 40
16.0
 40
16.0
 40
17.0
 40
17.0
 40
17.0
 40
17.0
 10
25.17245143684925
 20
-2.973117403770609
 30
0.0
 10
25.17245143684925
 20
-2.973117403770609
 30
0.0
 10
25.32420789297451
 20
-2.973117403770609
 30
0.0
 10
25.32420789297451
 20
-2.973117403770609
 30
0.0
 10
25.32420789297451
 20
-2.973117403770609
 30
0.0
 10
25.32420789297451
 20
-3.154673935843276
 30
0.0
 10
25.32420789297451
 20
-3.154673935843276
 30
0.0
 10
25.36933864383128
 20
-3.082499185427292
 30
0.0
 10
25.42635497411216
 20
-3.026860893340507
 30
0.0
 10
25.49491237426864
 20
-2.987931314357183
 30
0.0
 10
25.56364202919937
 20
-2.949173990148123
 30
0.0
 10
25.63598903438962
 20
-2.929709200656461
 30
0.0
 10
25.71178113506511
 20
-2.929709200656461
 30
0.0
 10
25.82736408859525
 20
-2.929709200656461
 30
0.0
 10
25.91814235463158
 20
-2.966743977122897
 30
0.0
 10
25.98411593317411
 20
-3.040813530055769
 30
0.0
 10
26.05008951171665
 20
-3.11488308298864
 30
0.0
 10
26.08316242837505
 20
-3.21789143799761
 30
0.0
 10
26.08316242837505
 20
-3.349838595082679
 30
0.0
 10
26.08316242837505
 20
-3.349838595082679
 30
0.0
 10
26.08316242837505
 20
-4.366141763231381
 30
0.0
 10
26.08316242837505
 20
-4.366141763231381
 30
0.0
 10
26.08316242837505
 20
-4.366141763231381
 30
0.0
 10
25.92864989586159
 20
-4.366141763231381
 30
0.0
 10
25.92864989586159
 20
-4.366141763231381
 30
0.0
 10
25.92864989586159
 20
-4.366141763231381
 30
0.0
 10
25.92864989586159
 20
-3.37412651825369
 30
0.0
 10
25.92864989586159
 20
-3.37412651825369
 30
0.0
 10
25.92864989586159
 20
-3.170004610752637
 30
0.0
 10
25.84372829215018
 20
-3.068029784389242
 30
0.0
 10
25.67388508472737
 20
-3.068029784389242
 30
0.0
 10
25.62324218109419
 20
-3.068029784389242
 30
0.0
 10
25.5736328061066
 20
-3.080087618587616
 30
0.0
 10
25.52471245021605
 20
-3.10454779653289
 30
0.0
 10
25.47596434909976
 20
-3.129007974478164
 30
0.0
 10
25.4344509485025
 20
-3.160013833845413
 30
0.0
 10
25.40017224842426
 20
-3.198082138957424
 30
0.0
 10
25.3765733443503
 20
-3.225126138516635
 30
0.0
 10
25.35814208350422
 20
-3.254064940592733
 30
0.0
 10
25.34453395633748
 20
-3.284726290411457
 30
0.0
 10
25.33109808394501
 20
-3.315559895004443
 30
0.0
 10
25.32420789297451
 20
-3.347082518694479
 30
0.0
 10
25.32420789297451
 20
-3.37963867103009
 30
0.0
 10
25.32420789297451
 20
-3.37963867103009
 30
0.0
 10
25.32420789297451
 20
-4.366141763231381
 30
0.0
 10
25.32420789297451
 20
-4.366141763231381
 30
0.0
 10
25.32420789297451
 20
-4.366141763231381
 30
0.0
 10
25.17245143684925
 20
-4.366141763231381
 30
0.0
 10
25.17245143684925
 20
-4.366141763231381
 30
0.0
 10
25.17245143684925
 20
-4.366141763231381
 30
0.0
 10
25.17245143684925
 20
-2.973117403770609
 30
0.0
 10
25.17245143684925
 20
-2.973117403770609
 30
0.0
  0
HATCH
  5
B8
330
7D
100
AcDbEntity
  8
レイヤー 1
 62
   250
420
  4078137
440
 33554687
100
AcDbHatch
 10
0.0
 20
0.0
 30
0.0
210
0.0
220
0.0
230
1.0
  2
SOLID
 70
     1
 71
     1
 91
        1
 92
        1
 93
        1
 72
     4
 94
        3
 73
     0
 74
     0
 95
       56
 96
       52
 40
0.0
 40
0.0
 40
0.0
 40
0.0
 40
1.0
 40
1.0
 40
1.0
 40
2.0
 40
2.0
 40
2.0
 40
3.0
 40
3.0
 40
3.0
 40
4.0
 40
4.0
 40
4.0
 40
5.0
 40
5.0
 40
5.0
 40
6.0
 40
6.0
 40
6.0
 40
7.0
 40
7.0
 40
7.0
 40
8.0
 40
8.0
 40
8.0
 40
9.0
 40
9.0
 40
9.0
 40
10.0
 40
10.0
 40
10.0
 40
11.0
 40
11.0
 40
11.0
 40
12.0
 40
12.0
 40
12.0
 40
13.0
 40
13.0
 40
13.0
 40
14.0
 40
14.0
 40
14.0
 40
15.0
 40
15.0
 40
15.0
 40
16.0
 40
16.0
 40
16.0
 40
17.0
 40
17.0
 40
17.0
 40
17.0
 10
25.17245143684925
 20
-2.973117403770609
 10
25.17245143684925
 20
-2.973117403770609
 10
25.32420789297451
 20
-2.973117403770609
 10
25.32420789297451
 20
-2.973117403770609
 10
25.32420789297451
 20
-2.973117403770609
 10
25.32420789297451
 20
-3.154673935843276
 10
25.32420789297451
 20
-3.154673935843276
 10
25.36933864383128
 20
-3.082499185427292
 10
25.42635497411216
 20
-3.026860893340507
 10
25.49491237426864
 20
-2.987931314357183
 10
25.56364202919937
 20
-2.949173990148123
 10
25.63598903438962
 20
-2.929709200656461
 10
25.71178113506511
 20
-2.929709200656461
 10
25.82736408859525
 20
-2.929709200656461
 10
25.91814235463158
 20
-2.966743977122897
 10
25.98411593317411
 20
-3.040813530055769
 10
26.05008951171665
 20
-3.11488308298864
 10
26.08316242837505
 20
-3.21789143799761
 10
26.08316242837505
 20
-3.349838595082679
 10
26.08316242837505
 20
-3.349838595082679
 10
26.08316242837505
 20
-4.366141763231381
 10
26.08316242837505
 20
-4.366141763231381
 10
26.08316242837505
 20
-4.366141763231381
 10
25.92864989586159
 20
-4.366141763231381
 10
25.92864989586159
 20
-4.366141763231381
 10
25.92864989586159
 20
-4.366141763231381
 10
25.92864989586159
 20
-3.37412651825369
 10
25.92864989586159
 20
-3.37412651825369
 10
25.92864989586159
 20
-3.170004610752637
 10
25.84372829215018
 20
-3.068029784389242
 10
25.67388508472737
 20
-3.068029784389242
 10
25.62324218109419
 20
-3.068029784389242
 10
25.5736328061066
 20
-3.080087618587616
 10
25.52471245021605
 20
-3.10454779653289
 10
25.47596434909976
 20
-3.129007974478164
 10
25.4344509485025
 20
-3.160013833845413
 10
25.40017224842426
 20
-3.198082138957424
 10
25.3765733443503
 20
-3.225126138516635
 10
25.35814208350422
 20
-3.254064940592733
 10
25.34453395633748
 20
-3.284726290411457
 10
25.33109808394501
 20
-3.315559895004443
 10
25.32420789297451
 20
-3.347082518694479
 10
25.32420789297451
 20
-3.37963867103009
 10
25.32420789297451
 20
-3.37963867103009
 10
25.32420789297451
 20
-4.366141763231381
 10
25.32420789297451
 20
-4.366141763231381
 10
25.32420789297451
 20
-4.366141763231381
 10
25.17245143684925
 20
-4.366141763231381
 10
25.17245143684925
 20
-4.366141763231381
 10
25.17245143684925
 20
-4.366141763231381
 10
25.17245143684925
 20
-2.973117403770609
 10
25.17245143684925
 20
-2.973117403770609
 97
        0
 97
        1
330
B7
 75
     2
 76
     1
 98
        1
 10
0.0
 20
0.0
450
        0
451
        0
460
0.0
461
0.0
452
        0
462
0.0
453
        0
470

  0
SPLINE
  5
B9
330
7D
100
AcDbEntity
  8
レイヤー 1
100
AcDbSpline
210
0.0
220
0.0
230
1.0
 70
    11
 71
     3
 72
    17
 73
    13
 74
     0
 42
0.0000000001
 43
0.0000000001
 40
0.0
 40
0.0
 40
0.0
 40
0.0
 40
1.0
 40
1.0
 40
1.0
 40
2.0
 40
2.0
 40
2.0
 40
3.0
 40
3.0
 40
3.0
 40
4.0
 40
4.0
 40
4.0
 40
4.0
 10
26.26454670567345
 20
-4.699454751429303
 30
0.0
 10
26.26454670567345
 20
-4.699454751429303
 30
0.0
 10
27.34871825488157
 20
-4.699454751429303
 30
0.0
 10
27.34871825488157
 20
-4.699454751429303
 30
0.0
 10
27.34871825488157
 20
-4.699454751429303
 30
0.0
 10
27.34871825488157
 20
-4.802463106438273
 30
0.0
 10
27.34871825488157
 20
-4.802463106438273
 30
0.0
 10
27.34871825488157
 20
-4.802463106438273
 30
0.0
 10
26.26454670567345
 20
-4.802463106438273
 30
0.0
 10
26.26454670567345
 20
-4.802463106438273
 30
0.0
 10
26.26454670567345
 20
-4.802463106438273
 30
0.0
 10
26.26454670567345
 20
-4.699454751429303
 30
0.0
 10
26.26454670567345
 20
-4.699454751429303
 30
0.0
  0
HATCH
  5
BA
330
7D
100
AcDbEntity
  8
レイヤー 1
 62
   250
420
  4078137
440
 33554687
100
AcDbHatch
 10
0.0
 20
0.0
 30
0.0
210
0.0
220
0.0
230
1.0
  2
SOLID
 70
     1
 71
     1
 91
        1
 92
        1
 93
        1
 72
     4
 94
        3
 73
     0
 74
     0
 95
       17
 96
       13
 40
0.0
 40
0.0
 40
0.0
 40
0.0
 40
1.0
 40
1.0
 40
1.0
 40
2.0
 40
2.0
 40
2.0
 40
3.0
 40
3.0
 40
3.0
 40
4.0
 40
4.0
 40
4.0
 40
4.0
 10
26.26454670567345
 20
-4.699454751429303
 10
26.26454670567345
 20
-4.699454751429303
 10
27.34871825488157
 20
-4.699454751429303
 10
27.34871825488157
 20
-4.699454751429303
 10
27.34871825488157
 20
-4.699454751429303
 10
27.34871825488157
 20
-4.802463106438273
 10
27.34871825488157
 20
-4.802463106438273
 10
27.34871825488157
 20
-4.802463106438273
 10
26.26454670567345
 20
-4.802463106438273
 10
26.26454670567345
 20
-4.802463106438273
 10
26.26454670567345
 20
-4.802463106438273
 10
26.26454670567345
 20
-4.699454751429303
 10
26.26454670567345
 20
-4.699454751429303
 97
        0
 97
        1
330
B9
 75
     2
 76
     1
 98
        1
 10
0.0
 20
0.0
450
        0
451
        0
460
0.0
461
0.0
452
        0
462
0.0
453
        0
470

  0
SPLINE
  5
BB
330
7D
100
AcDbEntity
  8
レイヤー 1
100
AcDbSpline
210
0.0
220
0.0
230
1.0
 70
    11
 71
     3
 72
    53
 73
    49
 74
     0
 42
0.0000000001
 43
0.0000000001
 40
0.0
 40
0.0
 40
0.0
 40
0.0
 40
1.0
 40
1.0
 40
1.0
 40
2.0
 40
2.0
 40
2.0
 40
3.0
 40
3.0
 40
3.0
 40
4.0
 40
4.0
 40
4.0
 40
5.0
 40
5.0
 40
5.0
 40
6.0
 40
6.0
 40
6.0
 40
7.0
 40
7.0
 40
7.0
 40
8.0
 40
8.0
 40
8.0
 40
9.0
 40
9.0
 40
9.0
 40
10.0
 40
10.0
 40
10.0
 40
11.0
 40
11.0
 40
11.0
 40
12.0
 40
12.0
 40
12.0
 40
13.0
 40
13.0
 40
13.0
 40
14.0
 40
14.0
 40
14.0
 40
15.0
 40
15.0
 40
15.0
 40
16.0
 40
16.0
 40
16.0
 40
16.0
 10
27.54112683773278
 20
-2.973117403770609
 30
0.0
 10
27.54112683773278
 20
-2.973117403770609
 30
0.0
 10
27.69288329385803
 20
-2.973117403770609
 30
0.0
 10
27.69288329385803
 20
-2.973117403770609
 30
0.0
 10
27.69288329385803
 20
-2.973117403770609
 30
0.0
 10
27.69288329385803
 20
-3.17637803740035
 30
0.0
 10
27.69288329385803
 20
-3.17637803740035
 30
0.0
 10
27.73077934419578
 20
-3.10592583472699
 30
0.0
 10
27.77832166189223
 20
-3.050287542640206
 30
0.0
 10
27.83516573739885
 20
-3.009635415914257
 30
0.0
 10
27.89218206767973
 20
-2.968983289188309
 30
0.0
 10
27.95126545525177
 20
-2.948657225825335
 30
0.0
 10
28.01276040966348
 20
-2.948657225825335
 30
0.0
 10
28.02895235844415
 20
-2.948657225825335
 30
0.0
 10
28.04428303335352
 20
-2.94969075447091
 30
0.0
 10
28.05875243439157
 20
-2.951413302213535
 30
0.0
 10
28.07322183542961
 20
-2.953308104730423
 30
0.0
 10
28.08855251033897
 20
-2.95589192634436
 30
0.0
 10
28.10491671389391
 20
-2.959509276603872
 30
0.0
 10
28.10491671389391
 20
-2.959509276603872
 30
0.0
 10
28.08321261233684
 20
-3.10592583472699
 30
0.0
 10
28.08321261233684
 20
-3.10592583472699
 30
0.0
 10
28.06874321129879
 20
-3.102308484467478
 30
0.0
 10
28.05341253638943
 20
-3.099552408079278
 30
0.0
 10
28.03704833283449
 20
-3.097829860336653
 30
0.0
 10
28.02085638405382
 20
-3.095935057819766
 30
0.0
 10
28.00552570914446
 20
-3.095073783948453
 30
0.0
 10
27.99105630810641
 20
-3.095073783948453
 30
0.0
 10
27.93679605421372
 20
-3.095073783948453
 30
0.0
 10
27.88666991490333
 20
-3.110921223180603
 30
0.0
 10
27.84067789017525
 20
-3.142443846870639
 30
0.0
 10
27.7945136106729
 20
-3.174138725334937
 30
0.0
 10
27.75885687240057
 20
-3.213412813866785
 30
0.0
 10
27.73353542058398
 20
-3.260438367240446
 30
0.0
 10
27.72096082206282
 20
-3.281970214023257
 30
0.0
 10
27.71097004515559
 20
-3.305569118097218
 30
0.0
 10
27.70373534463657
 20
-3.330890569913805
 30
0.0
 10
27.69650064411754
 20
-3.356212021730391
 30
0.0
 10
27.69288329385803
 20
-3.381361218772715
 30
0.0
 10
27.69288329385803
 20
-3.406682670589301
 30
0.0
 10
27.69288329385803
 20
-3.406682670589301
 30
0.0
 10
27.69288329385803
 20
-4.366141763231381
 30
0.0
 10
27.69288329385803
 20
-4.366141763231381
 30
0.0
 10
27.69288329385803
 20
-4.366141763231381
 30
0.0
 10
27.54112683773278
 20
-4.366141763231381
 30
0.0
 10
27.54112683773278
 20
-4.366141763231381
 30
0.0
 10
27.54112683773278
 20
-4.366141763231381
 30
0.0
 10
27.54112683773278
 20
-2.973117403770609
 30
0.0
 10
27.54112683773278
 20
-2.973117403770609
 30
0.0
  0
HATCH
  5
BC
330
7D
100
AcDbEntity
  8
レイヤー 1
 62
   250
420
  4078137
440
 33554687
100
AcDbHatch
 10
0.0
 20
0.0
 30
0.0
210
0.0
220
0.0
230
1.0
  2
SOLID
 70
     1
 71
     1
 91
        1
 92
        1
 93
        1
 72
     4
 94
        3
 73
     0
 74
     0
 95
       53
 96
       49
 40
0.0
 40
0.0
 40
0.0
 40
0.0
 40
1.0
 40
1.0
 40
1.0
 40
2.0
 40
2.0
 40
2.0
 40
3.0
 40
3.0
 40
3.0
 40
4.0
 40
4.0
 40
4.0
 40
5.0
 40
5.0
 40
5.0
 40
6.0
 40
6.0
 40
6.0
 40
7.0
 40
7.0
 40
7.0
 40
8.0
 40
8.0
 40
8.0
 40
9.0
 40
9.0
 40
9.0
 40
10.0
 40
10.0
 40
10.0
 40
11.0
 40
11.0
 40
11.0
 40
12.0
 40
12.0
 40
12.0
 40
13.0
 40
13.0
 40
13.0
 40
14.0
 40
14.0
 40
14.0
 40
15.0
 40
15.0
 40
15.0
 40
16.0
 40
16.0
 40
16.0
 40
16.0
 10
27.54112683773278
 20
-2.973117403770609
 10
27.54112683773278
 20
-2.973117403770609
 10
27.69288329385803
 20
-2.973117403770609
 10
27.69288329385803
 20
-2.973117403770609
 10
27.69288329385803
 20
-2.973117403770609
 10
27.69288329385803
 20
-3.17637803740035
 10
27.69288329385803
 20
-3.17637803740035
 10
27.73077934419578
 20
-3.10592583472699
 10
27.77832166189223
 20
-3.050287542640206
 10
27.83516573739885
 20
-3.009635415914257
 10
27.89218206767973
 20
-2.968983289188309
 10
27.95126545525177
 20
-2.948657225825335
 10
28.01276040966348
 20
-2.948657225825335
 10
28.02895235844415
 20
-2.948657225825335
 10
28.04428303335352
 20
-2.94969075447091
 10
28.05875243439157
 20
-2.951413302213535
 10
28.07322183542961
 20
-2.953308104730423
 10
28.08855251033897
 20
-2.95589192634436
 10
28.10491671389391
 20
-2.959509276603872
 10
28.10491671389391
 20
-2.959509276603872
 10
28.08321261233684
 20
-3.10592583472699
 10
28.08321261233684
 20
-3.10592583472699
 10
28.06874321129879
 20
-3.102308484467478
 10
28.05341253638943
 20
-3.099552408079278
 10
28.03704833283449
 20
-3.097829860336653
 10
28.02085638405382
 20
-3.095935057819766
 10
28.00552570914446
 20
-3.095073783948453
 10
27.99105630810641
 20
-3.095073783948453
 10
27.93679605421372
 20
-3.095073783948453
 10
27.88666991490333
 20
-3.110921223180603
 10
27.84067789017525
 20
-3.142443846870639
 10
27.7945136106729
 20
-3.174138725334937
 10
27.75885687240057
 20
-3.213412813866785
 10
27.73353542058398
 20
-3.260438367240446
 10
27.72096082206282
 20
-3.281970214023257
 10
27.71097004515559
 20
-3.305569118097218
 10
27.70373534463657
 20
-3.330890569913805
 10
27.69650064411754
 20
-3.356212021730391
 10
27.69288329385803
 20
-3.381361218772715
 10
27.69288329385803
 20
-3.406682670589301
 10
27.69288329385803
 20
-3.406682670589301
 10
27.69288329385803
 20
-4.366141763231381
 10
27.69288329385803
 20
-4.366141763231381
 10
27.69288329385803
 20
-4.366141763231381
 10
27.54112683773278
 20
-4.366141763231381
 10
27.54112683773278
 20
-4.366141763231381
 10
27.54112683773278
 20
-4.366141763231381
 10
27.54112683773278
 20
-2.973117403770609
 10
27.54112683773278
 20
-2.973117403770609
 97
        0
 97
        1
330
BB
 75
     2
 76
     1
 98
        1
 10
0.0
 20
0.0
450
        0
451
        0
460
0.0
461
0.0
452
        0
462
0.0
453
        0
470

  0
SPLINE
  5
BD
330
7D
100
AcDbEntity
  8
レイヤー 1
100
AcDbSpline
210
0.0
220
0.0
230
1.0
 70
     9
 71
     3
 72
    29
 73
    25
 74
     0
 42
0.0000000001
 43
0.0000000001
 40
0.0
 40
0.0
 40
0.0
 40
0.0
 40
1.0
 40
1.0
 40
1.0
 40
2.0
 40
2.0
 40
2.0
 40
3.0
 40
3.0
 40
3.0
 40
4.0
 40
4.0
 40
4.0
 40
5.0
 40
5.0
 40
5.0
 40
6.0
 40
6.0
 40
6.0
 40
7.0
 40
7.0
 40
7.0
 40
8.0
 40
8.0
 40
8.0
 40
8.0
 10
28.41101344775836
 20
-3.978568521140774
 30
0.0
 10
28.41101344775836
 20
-4.070724825371208
 30
0.0
 10
28.43271754931544
 20
-4.142210556690142
 30
0.0
 10
28.47612575242958
 20
-4.192681205549051
 30
0.0
 10
28.51936170076946
 20
-4.243324109182224
 30
0.0
 10
28.57999538130986
 20
-4.268645560998811
 30
0.0
 10
28.65768228450225
 20
-4.268645560998811
 30
0.0
 10
28.72089978665658
 20
-4.268645560998811
 30
0.0
 10
28.77774386216321
 20
-4.251936847895349
 30
0.0
 10
28.82838676579638
 20
-4.218519421688426
 30
0.0
 10
28.87902966942955
 20
-4.185101995481502
 30
0.0
 10
28.91916503183271
 20
-4.140832518496042
 30
0.0
 10
28.94896510778012
 20
-4.085710990732044
 30
0.0
 10
28.97876518372753
 20
-4.030589462968046
 30
0.0
 10
28.99375134908837
 20
-3.970472546750437
 30
0.0
 10
28.99375134908837
 20
-3.905360242079215
 30
0.0
 10
28.99375134908837
 20
-3.905360242079215
 30
0.0
 10
28.99375134908837
 20
-3.620795354997579
 30
0.0
 10
28.99375134908837
 20
-3.620795354997579
 30
0.0
 10
28.99375134908837
 20
-3.620795354997579
 30
0.0
 10
28.8121948170157
 20
-3.631647405776115
 30
0.0
 10
28.8121948170157
 20
-3.631647405776115
 30
0.0
 10
28.54468315258606
 20
-3.651628959590565
 30
0.0
 10
28.41101344775836
 20
-3.767211913120697
 30
0.0
 10
28.41101344775836
 20
-3.978568521140774
 30
0.0
  0
SPLINE
  5
BE
330
7D
100
AcDbEntity
  8
レイヤー 1
100
AcDbSpline
210
0.0
220
0.0
230
1.0
 70
     9
 71
     3
 72
    65
 73
    61
 74
     0
 42
0.0000000001
 43
0.0000000001
 40
0.0
 40
0.0
 40
0.0
 40
0.0
 40
1.0
 40
1.0
 40
1.0
 40
2.0
 40
2.0
 40
2.0
 40
3.0
 40
3.0
 40
3.0
 40
4.0
 40
4.0
 40
4.0
 40
5.0
 40
5.0
 40
5.0
 40
6.0
 40
6.0
 40
6.0
 40
7.0
 40
7.0
 40
7.0
 40
8.0
 40
8.0
 40
8.0
 40
9.0
 40
9.0
 40
9.0
 40
10.0
 40
10.0
 40
10.0
 40
11.0
 40
11.0
 40
11.0
 40
12.0
 40
12.0
 40
12.0
 40
13.0
 40
13.0
 40
13.0
 40
14.0
 40
14.0
 40
14.0
 40
15.0
 40
15.0
 40
15.0
 40
16.0
 40
16.0
 40
16.0
 40
17.0
 40
17.0
 40
17.0
 40
18.0
 40
18.0
 40
18.0
 40
19.0
 40
19.0
 40
19.0
 40
20.0
 40
20.0
 40
20.0
 40
20.0
 10
28.25391709363097
 20
-3.986664495531111
 30
0.0
 10
28.25391709363097
 20
-3.84765489270128
 30
0.0
 10
28.30128715655315
 20
-3.736895072850498
 30
0.0
 10
28.39619953717179
 20
-3.65472954552729
 30
0.0
 10
28.49093966301616
 20
-3.572564018204081
 30
0.0
 10
28.62598740603795
 20
-3.526055229153208
 30
0.0
 10
28.80134276623717
 20
-3.515203178374671
 30
0.0
 10
28.80134276623717
 20
-3.515203178374671
 30
0.0
 10
28.99375134908837
 20
-3.501595051207934
 30
0.0
 10
28.99375134908837
 20
-3.501595051207934
 30
0.0
 10
28.99375134908837
 20
-3.501595051207934
 30
0.0
 10
28.99375134908837
 20
-3.436482746536712
 30
0.0
 10
28.99375134908837
 20
-3.436482746536712
 30
0.0
 10
28.99375134908837
 20
-3.302813041709018
 30
0.0
 10
28.9720472475313
 20
-3.206178113347761
 30
0.0
 10
28.92863904441714
 20
-3.146577961452938
 30
0.0
 10
28.88540309607726
 20
-3.086977809558116
 30
0.0
 10
28.81581216727522
 20
-3.057177733610705
 30
0.0
 10
28.72003851278527
 20
-3.057177733610705
 30
0.0
 10
28.63683945681648
 20
-3.057177733610705
 30
0.0
 10
28.57310519033937
 20
-3.076125758779579
 30
0.0
 10
28.52900796812816
 20
-3.114021809117327
 30
0.0
 10
28.48456623636844
 20
-3.151917859455076
 30
0.0
 10
28.45442165087251
 20
-3.213412813866785
 30
0.0
 10
28.43805744731757
 20
-3.298334417578194
 30
0.0
 10
28.43805744731757
 20
-3.298334417578194
 30
0.0
 10
28.29990911835905
 20
-3.281970214023257
 30
0.0
 10
28.29990911835905
 20
-3.281970214023257
 30
0.0
 10
28.31971841739924
 20
-3.161047362490988
 30
0.0
 10
28.36502142303027
 20
-3.07199164419728
 30
0.0
 10
28.43547362570364
 20
-3.015147568690657
 30
0.0
 10
28.50592582837699
 20
-2.958131238409773
 30
0.0
 10
28.60428330448088
 20
-2.929709200656461
 30
0.0
 10
28.73089056356381
 20
-2.929709200656461
 30
0.0
 10
28.87541231917004
 20
-2.929709200656461
 30
0.0
 10
28.98065998624442
 20
-2.970878091705197
 30
0.0
 10
29.04663356478696
 20
-3.053043619028406
 30
0.0
 10
29.11243488855522
 20
-3.135209146351614
 30
0.0
 10
29.14550780521363
 20
-3.26491699137127
 30
0.0
 10
29.14550780521363
 20
-3.441994899313112
 30
0.0
 10
29.14550780521363
 20
-3.441994899313112
 30
0.0
 10
29.14550780521363
 20
-4.366141763231381
 30
0.0
 10
29.14550780521363
 20
-4.366141763231381
 30
0.0
 10
29.14550780521363
 20
-4.366141763231381
 30
0.0
 10
28.99650742547657
 20
-4.366141763231381
 30
0.0
 10
28.99650742547657
 20
-4.366141763231381
 30
0.0
 10
28.99650742547657
 20
-4.366141763231381
 30
0.0
 10
28.99650742547657
 20
-4.162881129601641
 30
0.0
 10
28.99650742547657
 20
-4.162881129601641
 30
0.0
 10
28.95120441984554
 20
-4.2388454850514
 30
0.0
 10
28.89608289208154
 20
-4.297067598752121
 30
0.0
 10
28.83114284218457
 20
-4.33771972547807
 30
0.0
 10
28.76603053751336
 20
-4.378371852204018
 30
0.0
 10
28.69557833484
 20
-4.398697915566992
 30
0.0
 10
28.6197862341645
 20
-4.398697915566992
 30
0.0
 10
28.50592582837699
 20
-4.398697915566992
 30
0.0
 10
28.41652560053476
 20
-4.361663139100556
 30
0.0
 10
28.35141329586354
 20
-4.287593586167685
 30
0.0
 10
28.28630099119232
 20
-4.213524033234813
 30
0.0
 10
28.25391709363097
 20
-4.113271754614043
 30
0.0
 10
28.25391709363097
 20
-3.986664495531111
 30
0.0
  0
HATCH
  5
BF
330
7D
100
AcDbEntity
  8
レイヤー 1
 62
   250
420
  4078137
440
 33554687
100
AcDbHatch
 10
0.0
 20
0.0
 30
0.0
210
0.0
220
0.0
230
1.0
  2
SOLID
 70
     1
 71
     1
 91
        2
 92
        1
 93
        1
 72
     4
 94
        3
 73
     0
 74
     0
 95
       29
 96
       25
 40
0.0
 40
0.0
 40
0.0
 40
0.0
 40
1.0
 40
1.0
 40
1.0
 40
2.0
 40
2.0
 40
2.0
 40
3.0
 40
3.0
 40
3.0
 40
4.0
 40
4.0
 40
4.0
 40
5.0
 40
5.0
 40
5.0
 40
6.0
 40
6.0
 40
6.0
 40
7.0
 40
7.0
 40
7.0
 40
8.0
 40
8.0
 40
8.0
 40
8.0
 10
28.41101344775836
 20
-3.978568521140774
 10
28.41101344775836
 20
-4.070724825371208
 10
28.43271754931544
 20
-4.142210556690142
 10
28.47612575242958
 20
-4.192681205549051
 10
28.51936170076946
 20
-4.243324109182224
 10
28.57999538130986
 20
-4.268645560998811
 10
28.65768228450225
 20
-4.268645560998811
 10
28.72089978665658
 20
-4.268645560998811
 10
28.77774386216321
 20
-4.251936847895349
 10
28.82838676579638
 20
-4.218519421688426
 10
28.87902966942955
 20
-4.185101995481502
 10
28.91916503183271
 20
-4.140832518496042
 10
28.94896510778012
 20
-4.085710990732044
 10
28.97876518372753
 20
-4.030589462968046
 10
28.99375134908837
 20
-3.970472546750437
 10
28.99375134908837
 20
-3.905360242079215
 10
28.99375134908837
 20
-3.905360242079215
 10
28.99375134908837
 20
-3.620795354997579
 10
28.99375134908837
 20
-3.620795354997579
 10
28.99375134908837
 20
-3.620795354997579
 10
28.8121948170157
 20
-3.631647405776115
 10
28.8121948170157
 20
-3.631647405776115
 10
28.54468315258606
 20
-3.651628959590565
 10
28.41101344775836
 20
-3.767211913120697
 10
28.41101344775836
 20
-3.978568521140774
 97
        0
 97
        1
330
BD
 92
        1
 93
        1
 72
     4
 94
        3
 73
     0
 74
     0
 95
       65
 96
       61
 40
0.0
 40
0.0
 40
0.0
 40
0.0
 40
1.0
 40
1.0
 40
1.0
 40
2.0
 40
2.0
 40
2.0
 40
3.0
 40
3.0
 40
3.0
 40
4.0
 40
4.0
 40
4.0
 40
5.0
 40
5.0
 40
5.0
 40
6.0
 40
6.0
 40
6.0
 40
7.0
 40
7.0
 40
7.0
 40
8.0
 40
8.0
 40
8.0
 40
9.0
 40
9.0
 40
9.0
 40
10.0
 40
10.0
 40
10.0
 40
11.0
 40
11.0
 40
11.0
 40
12.0
 40
12.0
 40
12.0
 40
13.0
 40
13.0
 40
13.0
 40
14.0
 40
14.0
 40
14.0
 40
15.0
 40
15.0
 40
15.0
 40
16.0
 40
16.0
 40
16.0
 40
17.0
 40
17.0
 40
17.0
 40
18.0
 40
18.0
 40
18.0
 40
19.0
 40
19.0
 40
19.0
 40
20.0
 40
20.0
 40
20.0
 40
20.0
 10
28.25391709363097
 20
-3.986664495531111
 10
28.25391709363097
 20
-3.84765489270128
 10
28.30128715655315
 20
-3.736895072850498
 10
28.39619953717179
 20
-3.65472954552729
 10
28.49093966301616
 20
-3.572564018204081
 10
28.62598740603795
 20
-3.526055229153208
 10
28.80134276623717
 20
-3.515203178374671
 10
28.80134276623717
 20
-3.515203178374671
 10
28.99375134908837
 20
-3.501595051207934
 10
28.99375134908837
 20
-3.501595051207934
 10
28.99375134908837
 20
-3.501595051207934
 10
28.99375134908837
 20
-3.436482746536712
 10
28.99375134908837
 20
-3.436482746536712
 10
28.99375134908837
 20
-3.302813041709018
 10
28.9720472475313
 20
-3.206178113347761
 10
28.92863904441714
 20
-3.146577961452938
 10
28.88540309607726
 20
-3.086977809558116
 10
28.81581216727522
 20
-3.057177733610705
 10
28.72003851278527
 20
-3.057177733610705
 10
28.63683945681648
 20
-3.057177733610705
 10
28.57310519033937
 20
-3.076125758779579
 10
28.52900796812816
 20
-3.114021809117327
 10
28.48456623636844
 20
-3.151917859455076
 10
28.45442165087251
 20
-3.213412813866785
 10
28.43805744731757
 20
-3.298334417578194
 10
28.43805744731757
 20
-3.298334417578194
 10
28.29990911835905
 20
-3.281970214023257
 10
28.29990911835905
 20
-3.281970214023257
 10
28.31971841739924
 20
-3.161047362490988
 10
28.36502142303027
 20
-3.07199164419728
 10
28.43547362570364
 20
-3.015147568690657
 10
28.50592582837699
 20
-2.958131238409773
 10
28.60428330448088
 20
-2.929709200656461
 10
28.73089056356381
 20
-2.929709200656461
 10
28.87541231917004
 20
-2.929709200656461
 10
28.98065998624442
 20
-2.970878091705197
 10
29.04663356478696
 20
-3.053043619028406
 10
29.11243488855522
 20
-3.135209146351614
 10
29.14550780521363
 20
-3.26491699137127
 10
29.14550780521363
 20
-3.441994899313112
 10
29.14550780521363
 20
-3.441994899313112
 10
29.14550780521363
 20
-4.366141763231381
 10
29.14550780521363
 20
-4.366141763231381
 10
29.14550780521363
 20
-4.366141763231381
 10
28.99650742547657
 20
-4.366141763231381
 10
28.99650742547657
 20
-4.366141763231381
 10
28.99650742547657
 20
-4.366141763231381
 10
28.99650742547657
 20
-4.162881129601641
 10
28.99650742547657
 20
-4.162881129601641
 10
28.95120441984554
 20
-4.2388454850514
 10
28.89608289208154
 20
-4.297067598752121
 10
28.83114284218457
 20
-4.33771972547807
 10
28.76603053751336
 20
-4.378371852204018
 10
28.69557833484
 20
-4.398697915566992
 10
28.6197862341645
 20
-4.398697915566992
 10
28.50592582837699
 20
-4.398697915566992
 10
28.41652560053476
 20
-4.361663139100556
 10
28.35141329586354
 20
-4.287593586167685
 10
28.28630099119232
 20
-4.213524033234813
 10
28.25391709363097
 20
-4.113271754614043
 10
28.25391709363097
 20
-3.986664495531111
 97
        0
 97
        1
330
BE
 75
     2
 76
     1
 98
        1
 10
0.0
 20
0.0
450
        0
451
        0
460
0.0
461
0.0
452
        0
462
0.0
453
        0
470

  0
SPLINE
  5
C0
330
7D
100
AcDbEntity
  8
レイヤー 1
100
AcDbSpline
210
0.0
220
0.0
230
1.0
 70
    11
 71
     3
 72
    17
 73
    13
 74
     0
 42
0.0000000001
 43
0.0000000001
 40
0.0
 40
0.0
 40
0.0
 40
0.0
 40
1.0
 40
1.0
 40
1.0
 40
2.0
 40
2.0
 40
2.0
 40
3.0
 40
3.0
 40
3.0
 40
4.0
 40
4.0
 40
4.0
 40
4.0
 10
29.5194729201375
 20
-2.973117403770609
 30
0.0
 10
29.5194729201375
 20
-2.973117403770609
 30
0.0
 10
29.67122937626275
 20
-2.973117403770609
 30
0.0
 10
29.67122937626275
 20
-2.973117403770609
 30
0.0
 10
29.67122937626275
 20
-2.973117403770609
 30
0.0
 10
29.67122937626275
 20
-4.366141763231381
 30
0.0
 10
29.67122937626275
 20
-4.366141763231381
 30
0.0
 10
29.67122937626275
 20
-4.366141763231381
 30
0.0
 10
29.5194729201375
 20
-4.366141763231381
 30
0.0
 10
29.5194729201375
 20
-4.366141763231381
 30
0.0
 10
29.5194729201375
 20
-4.366141763231381
 30
0.0
 10
29.5194729201375
 20
-2.973117403770609
 30
0.0
 10
29.5194729201375
 20
-2.973117403770609
 30
0.0
  0
SPLINE
  5
C1
330
7D
100
AcDbEntity
  8
レイヤー 1
100
AcDbSpline
210
0.0
220
0.0
230
1.0
 70
    11
 71
     3
 72
    17
 73
    13
 74
     0
 42
0.0000000001
 43
0.0000000001
 40
0.0
 40
0.0
 40
0.0
 40
0.0
 40
1.0
 40
1.0
 40
1.0
 40
2.0
 40
2.0
 40
2.0
 40
3.0
 40
3.0
 40
3.0
 40
4.0
 40
4.0
 40
4.0
 40
4.0
 10
29.51671684374929
 20
-2.431031629166547
 30
0.0
 10
29.51671684374929
 20
-2.431031629166547
 30
0.0
 10
29.67674152903915
 20
-2.431031629166547
 30
0.0
 10
29.67674152903915
 20
-2.431031629166547
 30
0.0
 10
29.67674152903915
 20
-2.431031629166547
 30
0.0
 10
29.67674152903915
 20
-2.69389241469111
 30
0.0
 10
29.67674152903915
 20
-2.69389241469111
 30
0.0
 10
29.67674152903915
 20
-2.69389241469111
 30
0.0
 10
29.51671684374929
 20
-2.69389241469111
 30
0.0
 10
29.51671684374929
 20
-2.69389241469111
 30
0.0
 10
29.51671684374929
 20
-2.69389241469111
 30
0.0
 10
29.51671684374929
 20
-2.431031629166547
 30
0.0
 10
29.51671684374929
 20
-2.431031629166547
 30
0.0
  0
HATCH
  5
C2
330
7D
100
AcDbEntity
  8
レイヤー 1
 62
   250
420
  4078137
440
 33554687
100
AcDbHatch
 10
0.0
 20
0.0
 30
0.0
210
0.0
220
0.0
230
1.0
  2
SOLID
 70
     1
 71
     1
 91
        2
 92
        1
 93
        1
 72
     4
 94
        3
 73
     0
 74
     0
 95
       17
 96
       13
 40
0.0
 40
0.0
 40
0.0
 40
0.0
 40
1.0
 40
1.0
 40
1.0
 40
2.0
 40
2.0
 40
2.0
 40
3.0
 40
3.0
 40
3.0
 40
4.0
 40
4.0
 40
4.0
 40
4.0
 10
29.5194729201375
 20
-2.973117403770609
 10
29.5194729201375
 20
-2.973117403770609
 10
29.67122937626275
 20
-2.973117403770609
 10
29.67122937626275
 20
-2.973117403770609
 10
29.67122937626275
 20
-2.973117403770609
 10
29.67122937626275
 20
-4.366141763231381
 10
29.67122937626275
 20
-4.366141763231381
 10
29.67122937626275
 20
-4.366141763231381
 10
29.5194729201375
 20
-4.366141763231381
 10
29.5194729201375
 20
-4.366141763231381
 10
29.5194729201375
 20
-4.366141763231381
 10
29.5194729201375
 20
-2.973117403770609
 10
29.5194729201375
 20
-2.973117403770609
 97
        0
 97
        1
330
C0
 92
        1
 93
        1
 72
     4
 94
        3
 73
     0
 74
     0
 95
       17
 96
       13
 40
0.0
 40
0.0
 40
0.0
 40
0.0
 40
1.0
 40
1.0
 40
1.0
 40
2.0
 40
2.0
 40
2.0
 40
3.0
 40
3.0
 40
3.0
 40
4.0
 40
4.0
 40
4.0
 40
4.0
 10
29.51671684374929
 20
-2.431031629166547
 10
29.51671684374929
 20
-2.431031629166547
 10
29.67674152903915
 20
-2.431031629166547
 10
29.67674152903915
 20
-2.431031629166547
 10
29.67674152903915
 20
-2.431031629166547
 10
29.67674152903915
 20
-2.69389241469111
 10
29.67674152903915
 20
-2.69389241469111
 10
29.67674152903915
 20
-2.69389241469111
 10
29.51671684374929
 20
-2.69389241469111
 10
29.51671684374929
 20
-2.69389241469111
 10
29.51671684374929
 20
-2.69389241469111
 10
29.51671684374929
 20
-2.431031629166547
 10
29.51671684374929
 20
-2.431031629166547
 97
        0
 97
        1
330
C1
 75
     2
 76
     1
 98
        1
 10
0.0
 20
0.0
450
        0
451
        0
460
0.0
461
0.0
452
        0
462
0.0
453
        0
470

  0
SPLINE
  5
C3
330
7D
100
AcDbEntity
  8
レイヤー 1
100
AcDbSpline
210
0.0
220
0.0
230
1.0
 70
    11
 71
     3
 72
    17
 73
    13
 74
     0
 42
0.0000000001
 43
0.0000000001
 40
0.0
 40
0.0
 40
0.0
 40
0.0
 40
1.0
 40
1.0
 40
1.0
 40
2.0
 40
2.0
 40
2.0
 40
3.0
 40
3.0
 40
3.0
 40
4.0
 40
4.0
 40
4.0
 40
4.0
 10
30.05604654196516
 20
-2.431031629166547
 30
0.0
 10
30.05604654196516
 20
-2.431031629166547
 30
0.0
 10
30.20780299809041
 20
-2.431031629166547
 30
0.0
 10
30.20780299809041
 20
-2.431031629166547
 30
0.0
 10
30.20780299809041
 20
-2.431031629166547
 30
0.0
 10
30.20780299809041
 20
-4.366141763231381
 30
0.0
 10
30.20780299809041
 20
-4.366141763231381
 30
0.0
 10
30.20780299809041
 20
-4.366141763231381
 30
0.0
 10
30.05604654196516
 20
-4.366141763231381
 30
0.0
 10
30.05604654196516
 20
-4.366141763231381
 30
0.0
 10
30.05604654196516
 20
-4.366141763231381
 30
0.0
 10
30.05604654196516
 20
-2.431031629166547
 30
0.0
 10
30.05604654196516
 20
-2.431031629166547
 30
0.0
  0
HATCH
  5
C4
330
7D
100
AcDbEntity
  8
レイヤー 1
 62
   250
420
  4078137
440
 33554687
100
AcDbHatch
 10
0.0
 20
0.0
 30
0.0
210
0.0
220
0.0
230
1.0
  2
SOLID
 70
     1
 71
     1
 91
        1
 92
        1
 93
        1
 72
     4
 94
        3
 73
     0
 74
     0
 95
       17
 96
       13
 40
0.0
 40
0.0
 40
0.0
 40
0.0
 40
1.0
 40
1.0
 40
1.0
 40
2.0
 40
2.0
 40
2.0
 40
3.0
 40
3.0
 40
3.0
 40
4.0
 40
4.0
 40
4.0
 40
4.0
 10
30.05604654196516
 20
-2.431031629166547
 10
30.05604654196516
 20
-2.431031629166547
 10
30.20780299809041
 20
-2.431031629166547
 10
30.20780299809041
 20
-2.431031629166547
 10
30.20780299809041
 20
-2.431031629166547
 10
30.20780299809041
 20
-4.366141763231381
 10
30.20780299809041
 20
-4.366141763231381
 10
30.20780299809041
 20
-4.366141763231381
 10
30.05604654196516
 20
-4.366141763231381
 10
30.05604654196516
 20
-4.366141763231381
 10
30.05604654196516
 20
-4.366141763231381
 10
30.05604654196516
 20
-2.431031629166547
 10
30.05604654196516
 20
-2.431031629166547
 97
        0
 97
        1
330
C3
 75
     2
 76
     1
 98
        1
 10
0.0
 20
0.0
450
        0
451
        0
460
0.0
461
0.0
452
        0
462
0.0
453
        0
470

  0
SPLINE
  5
C5
330
7D
100
AcDbEntity
  8
レイヤー 1
100
AcDbSpline
210
0.0
220
0.0
230
1.0
 70
    11
 71
     3
 72
    41
 73
    37
 74
     0
 42
0.0000000001
 43
0.0000000001
 40
0.0
 40
0.0
 40
0.0
 40
0.0
 40
1.0
 40
1.0
 40
1.0
 40
2.0
 40
2.0
 40
2.0
 40
3.0
 40
3.0
 40
3.0
 40
4.0
 40
4.0
 40
4.0
 40
5.0
 40
5.0
 40
5.0
 40
6.0
 40
6.0
 40
6.0
 40
7.0
 40
7.0
 40
7.0
 40
8.0
 40
8.0
 40
8.0
 40
9.0
 40
9.0
 40
9.0
 40
10.0
 40
10.0
 40
10.0
 40
11.0
 40
11.0
 40
11.0
 40
12.0
 40
12.0
 40
12.0
 40
12.0
 10
31.0074096602169
 20
-3.515203178374671
 30
0.0
 10
31.0074096602169
 20
-3.515203178374671
 30
0.0
 10
30.5440443174508
 20
-3.515203178374671
 30
0.0
 10
30.5440443174508
 20
-3.515203178374671
 30
0.0
 10
30.5440443174508
 20
-3.515203178374671
 30
0.0
 10
30.5440443174508
 20
-3.37412651825369
 30
0.0
 10
30.5440443174508
 20
-3.37412651825369
 30
0.0
 10
30.5440443174508
 20
-3.37412651825369
 30
0.0
 10
31.0074096602169
 20
-3.37412651825369
 30
0.0
 10
31.0074096602169
 20
-3.37412651825369
 30
0.0
 10
31.0074096602169
 20
-3.37412651825369
 30
0.0
 10
31.0074096602169
 20
-2.856500921594902
 30
0.0
 10
31.0074096602169
 20
-2.856500921594902
 30
0.0
 10
31.0074096602169
 20
-2.856500921594902
 30
0.0
 10
31.15107014195182
 20
-2.856500921594902
 30
0.0
 10
31.15107014195182
 20
-2.856500921594902
 30
0.0
 10
31.15107014195182
 20
-2.856500921594902
 30
0.0
 10
31.15107014195182
 20
-3.37412651825369
 30
0.0
 10
31.15107014195182
 20
-3.37412651825369
 30
0.0
 10
31.15107014195182
 20
-3.37412651825369
 30
0.0
 10
31.61185166310398
 20
-3.37412651825369
 30
0.0
 10
31.61185166310398
 20
-3.37412651825369
 30
0.0
 10
31.61185166310398
 20
-3.37412651825369
 30
0.0
 10
31.61185166310398
 20
-3.515203178374671
 30
0.0
 10
31.61185166310398
 20
-3.515203178374671
 30
0.0
 10
31.61185166310398
 20
-3.515203178374671
 30
0.0
 10
31.15107014195182
 20
-3.515203178374671
 30
0.0
 10
31.15107014195182
 20
-3.515203178374671
 30
0.0
 10
31.15107014195182
 20
-3.515203178374671
 30
0.0
 10
31.15107014195182
 20
-4.032828775033459
 30
0.0
 10
31.15107014195182
 20
-4.032828775033459
 30
0.0
 10
31.15107014195182
 20
-4.032828775033459
 30
0.0
 10
31.0074096602169
 20
-4.032828775033459
 30
0.0
 10
31.0074096602169
 20
-4.032828775033459
 30
0.0
 10
31.0074096602169
 20
-4.032828775033459
 30
0.0
 10
31.0074096602169
 20
-3.515203178374671
 30
0.0
 10
31.0074096602169
 20
-3.515203178374671
 30
0.0
  0
HATCH
  5
C6
330
7D
100
AcDbEntity
  8
レイヤー 1
 62
   250
420
  4078137
440
 33554687
100
AcDbHatch
 10
0.0
 20
0.0
 30
0.0
210
0.0
220
0.0
230
1.0
  2
SOLID
 70
     1
 71
     1
 91
        1
 92
        1
 93
        1
 72
     4
 94
        3
 73
     0
 74
     0
 95
       41
 96
       37
 40
0.0
 40
0.0
 40
0.0
 40
0.0
 40
1.0
 40
1.0
 40
1.0
 40
2.0
 40
2.0
 40
2.0
 40
3.0
 40
3.0
 40
3.0
 40
4.0
 40
4.0
 40
4.0
 40
5.0
 40
5.0
 40
5.0
 40
6.0
 40
6.0
 40
6.0
 40
7.0
 40
7.0
 40
7.0
 40
8.0
 40
8.0
 40
8.0
 40
9.0
 40
9.0
 40
9.0
 40
10.0
 40
10.0
 40
10.0
 40
11.0
 40
11.0
 40
11.0
 40
12.0
 40
12.0
 40
12.0
 40
12.0
 10
31.0074096602169
 20
-3.515203178374671
 10
31.0074096602169
 20
-3.515203178374671
 10
30.5440443174508
 20
-3.515203178374671
 10
30.5440443174508
 20
-3.515203178374671
 10
30.5440443174508
 20
-3.515203178374671
 10
30.5440443174508
 20
-3.37412651825369
 10
30.5440443174508
 20
-3.37412651825369
 10
30.5440443174508
 20
-3.37412651825369
 10
31.0074096602169
 20
-3.37412651825369
 10
31.0074096602169
 20
-3.37412651825369
 10
31.0074096602169
 20
-3.37412651825369
 10
31.0074096602169
 20
-2.856500921594902
 10
31.0074096602169
 20
-2.856500921594902
 10
31.0074096602169
 20
-2.856500921594902
 10
31.15107014195182
 20
-2.856500921594902
 10
31.15107014195182
 20
-2.856500921594902
 10
31.15107014195182
 20
-2.856500921594902
 10
31.15107014195182
 20
-3.37412651825369
 10
31.15107014195182
 20
-3.37412651825369
 10
31.15107014195182
 20
-3.37412651825369
 10
31.61185166310398
 20
-3.37412651825369
 10
31.61185166310398
 20
-3.37412651825369
 10
31.61185166310398
 20
-3.37412651825369
 10
31.61185166310398
 20
-3.515203178374671
 10
31.61185166310398
 20
-3.515203178374671
 10
31.61185166310398
 20
-3.515203178374671
 10
31.15107014195182
 20
-3.515203178374671
 10
31.15107014195182
 20
-3.515203178374671
 10
31.15107014195182
 20
-3.515203178374671
 10
31.15107014195182
 20
-4.032828775033459
 10
31.15107014195182
 20
-4.032828775033459
 10
31.15107014195182
 20
-4.032828775033459
 10
31.0074096602169
 20
-4.032828775033459
 10
31.0074096602169
 20
-4.032828775033459
 10
31.0074096602169
 20
-4.032828775033459
 10
31.0074096602169
 20
-3.515203178374671
 10
31.0074096602169
 20
-3.515203178374671
 97
        0
 97
        1
330
C5
 75
     2
 76
     1
 98
        1
 10
0.0
 20
0.0
450
        0
451
        0
460
0.0
461
0.0
452
        0
462
0.0
453
        0
470

  0
SPLINE
  5
C7
330
7D
100
AcDbEntity
  8
レイヤー 1
100
AcDbSpline
210
0.0
220
0.0
230
1.0
 70
     9
 71
     3
 72
    50
 73
    46
 74
     0
 42
0.0000000001
 43
0.0000000001
 40
0.0
 40
0.0
 40
0.0
 40
0.0
 40
1.0
 40
1.0
 40
1.0
 40
2.0
 40
2.0
 40
2.0
 40
3.0
 40
3.0
 40
3.0
 40
4.0
 40
4.0
 40
4.0
 40
5.0
 40
5.0
 40
5.0
 40
6.0
 40
6.0
 40
6.0
 40
7.0
 40
7.0
 40
7.0
 40
8.0
 40
8.0
 40
8.0
 40
9.0
 40
9.0
 40
9.0
 40
10.0
 40
10.0
 40
10.0
 40
11.0
 40
11.0
 40
11.0
 40
12.0
 40
12.0
 40
12.0
 40
13.0
 40
13.0
 40
13.0
 40
14.0
 40
14.0
 40
14.0
 40
15.0
 40
15.0
 40
15.0
 40
15.0
 10
31.88022460140495
 20
-3.677811685278463
 30
0.0
 10
31.88022460140495
 20
-3.432004122405888
 30
0.0
 10
31.92259927587352
 20
-3.245968966202396
 30
0.0
 10
32.00752087958492
 20
-3.119361707119465
 30
0.0
 10
32.09244248329634
 20
-2.992926702810796
 30
0.0
 10
32.21715493986238
 20
-2.929709200656461
 30
0.0
 10
32.38148599450879
 20
-2.929709200656461
 30
0.0
 10
32.61816405434546
 20
-2.929709200656461
 30
0.0
 10
32.76096326220907
 20
-3.082499185427292
 30
0.0
 10
32.80971136332535
 20
-3.387734645420427
 30
0.0
 10
32.80971136332535
 20
-3.387734645420427
 30
0.0
 10
32.6634670599765
 20
-3.409438746977501
 30
0.0
 10
32.6634670599765
 20
-3.409438746977501
 30
0.0
 10
32.64348550616205
 20
-3.288343640670969
 30
0.0
 10
32.61006807995512
 20
-3.199804686700049
 30
0.0
 10
32.56321478135573
 20
-3.143821885064739
 30
0.0
 10
32.51618922798207
 20
-3.087839083429429
 30
0.0
 10
32.45297172582773
 20
-3.059761555224643
 30
0.0
 10
32.37339002011846
 20
-3.059761555224643
 30
0.0
 10
32.26142441684784
 20
-3.059761555224643
 30
0.0
 10
32.17788085133053
 20
-3.109887694535028
 30
0.0
 10
32.12275932356654
 20
-3.210312227930061
 30
0.0
 10
32.06763779580254
 20
-3.310564506550831
 30
0.0
 10
32.04007703192054
 20
-3.464560274741498
 30
0.0
 10
32.04007703192054
 20
-3.672299532502063
 30
0.0
 10
32.04007703192054
 20
-3.878316242520004
 30
0.0
 10
32.06763779580254
 20
-4.030933972516572
 30
0.0
 10
32.12275932356654
 20
-4.130324977266029
 30
0.0
 10
32.17788085133053
 20
-4.229715982015488
 30
0.0
 10
32.26142441684784
 20
-4.279497611777347
 30
0.0
 10
32.37339002011846
 20
-4.279497611777347
 30
0.0
 10
32.46382377660627
 20
-4.279497611777347
 30
0.0
 10
32.53289794108553
 20
-4.248319497635836
 30
0.0
 10
32.58078476833051
 20
-4.185963269352814
 30
0.0
 10
32.62867159557548
 20
-4.123607041069792
 30
0.0
 10
32.65898843584567
 20
-4.028350150902634
 30
0.0
 10
32.67156303436684
 20
-3.900020344077078
 30
0.0
 10
32.67156303436684
 20
-3.900020344077078
 30
0.0
 10
32.82331949049209
 20
-3.900020344077078
 30
0.0
 10
32.82331949049209
 20
-3.900020344077078
 30
0.0
 10
32.78542344015434
 20
-4.239706758922712
 30
0.0
 10
32.63366698402908
 20
-4.409549966345529
 30
0.0
 10
32.36805012211632
 20
-4.409549966345529
 30
0.0
 10
32.04283310830874
 20
-4.409549966345529
 30
0.0
 10
31.88022460140495
 20
-4.16563720598984
 30
0.0
 10
31.88022460140495
 20
-3.677811685278463
 30
0.0
  0
HATCH
  5
C8
330
7D
100
AcDbEntity
  8
レイヤー 1
 62
   250
420
  4078137
440
 33554687
100
AcDbHatch
 10
0.0
 20
0.0
 30
0.0
210
0.0
220
0.0
230
1.0
  2
SOLID
 70
     1
 71
     1
 91
        1
 92
        1
 93
        1
 72
     4
 94
        3
 73
     0
 74
     0
 95
       50
 96
       46
 40
0.0
 40
0.0
 40
0.0
 40
0.0
 40
1.0
 40
1.0
 40
1.0
 40
2.0
 40
2.0
 40
2.0
 40
3.0
 40
3.0
 40
3.0
 40
4.0
 40
4.0
 40
4.0
 40
5.0
 40
5.0
 40
5.0
 40
6.0
 40
6.0
 40
6.0
 40
7.0
 40
7.0
 40
7.0
 40
8.0
 40
8.0
 40
8.0
 40
9.0
 40
9.0
 40
9.0
 40
10.0
 40
10.0
 40
10.0
 40
11.0
 40
11.0
 40
11.0
 40
12.0
 40
12.0
 40
12.0
 40
13.0
 40
13.0
 40
13.0
 40
14.0
 40
14.0
 40
14.0
 40
15.0
 40
15.0
 40
15.0
 40
15.0
 10
31.88022460140495
 20
-3.677811685278463
 10
31.88022460140495
 20
-3.432004122405888
 10
31.92259927587352
 20
-3.245968966202396
 10
32.00752087958492
 20
-3.119361707119465
 10
32.09244248329634
 20
-2.992926702810796
 10
32.21715493986238
 20
-2.929709200656461
 10
32.38148599450879
 20
-2.929709200656461
 10
32.61816405434546
 20
-2.929709200656461
 10
32.76096326220907
 20
-3.082499185427292
 10
32.80971136332535
 20
-3.387734645420427
 10
32.80971136332535
 20
-3.387734645420427
 10
32.6634670599765
 20
-3.409438746977501
 10
32.6634670599765
 20
-3.409438746977501
 10
32.64348550616205
 20
-3.288343640670969
 10
32.61006807995512
 20
-3.199804686700049
 10
32.56321478135573
 20
-3.143821885064739
 10
32.51618922798207
 20
-3.087839083429429
 10
32.45297172582773
 20
-3.059761555224643
 10
32.37339002011846
 20
-3.059761555224643
 10
32.26142441684784
 20
-3.059761555224643
 10
32.17788085133053
 20
-3.109887694535028
 10
32.12275932356654
 20
-3.210312227930061
 10
32.06763779580254
 20
-3.310564506550831
 10
32.04007703192054
 20
-3.464560274741498
 10
32.04007703192054
 20
-3.672299532502063
 10
32.04007703192054
 20
-3.878316242520004
 10
32.06763779580254
 20
-4.030933972516572
 10
32.12275932356654
 20
-4.130324977266029
 10
32.17788085133053
 20
-4.229715982015488
 10
32.26142441684784
 20
-4.279497611777347
 10
32.37339002011846
 20
-4.279497611777347
 10
32.46382377660627
 20
-4.279497611777347
 10
32.53289794108553
 20
-4.248319497635836
 10
32.58078476833051
 20
-4.185963269352814
 10
32.62867159557548
 20
-4.123607041069792
 10
32.65898843584567
 20
-4.028350150902634
 10
32.67156303436684
 20
-3.900020344077078
 10
32.67156303436684
 20
-3.900020344077078
 10
32.82331949049209
 20
-3.900020344077078
 10
32.82331949049209
 20
-3.900020344077078
 10
32.78542344015434
 20
-4.239706758922712
 10
32.63366698402908
 20
-4.409549966345529
 10
32.36805012211632
 20
-4.409549966345529
 10
32.04283310830874
 20
-4.409549966345529
 10
31.88022460140495
 20
-4.16563720598984
 10
31.88022460140495
 20
-3.677811685278463
 97
        0
 97
        1
330
C7
 75
     2
 76
     1
 98
        1
 10
0.0
 20
0.0
450
        0
451
        0
460
0.0
461
0.0
452
        0
462
0.0
453
        0
470

  0
SPLINE
  5
C9
330
7D
100
AcDbEntity
  8
レイヤー 1
100
AcDbSpline
210
0.0
220
0.0
230
1.0
 70
    11
 71
     3
 72
    17
 73
    13
 74
     0
 42
0.0000000001
 43
0.0000000001
 40
0.0
 40
0.0
 40
0.0
 40
0.0
 40
1.0
 40
1.0
 40
1.0
 40
2.0
 40
2.0
 40
2.0
 40
3.0
 40
3.0
 40
3.0
 40
4.0
 40
4.0
 40
4.0
 40
4.0
 10
33.10237222479733
 20
-2.431031629166547
 30
0.0
 10
33.10237222479733
 20
-2.431031629166547
 30
0.0
 10
33.25412868092259
 20
-2.431031629166547
 30
0.0
 10
33.25412868092259
 20
-2.431031629166547
 30
0.0
 10
33.25412868092259
 20
-2.431031629166547
 30
0.0
 10
33.25412868092259
 20
-4.366141763231381
 30
0.0
 10
33.25412868092259
 20
-4.366141763231381
 30
0.0
 10
33.25412868092259
 20
-4.366141763231381
 30
0.0
 10
33.10237222479733
 20
-4.366141763231381
 30
0.0
 10
33.10237222479733
 20
-4.366141763231381
 30
0.0
 10
33.10237222479733
 20
-4.366141763231381
 30
0.0
 10
33.10237222479733
 20
-2.431031629166547
 30
0.0
 10
33.10237222479733
 20
-2.431031629166547
 30
0.0
  0
HATCH
  5
CA
330
7D
100
AcDbEntity
  8
レイヤー 1
 62
   250
420
  4078137
440
 33554687
100
AcDbHatch
 10
0.0
 20
0.0
 30
0.0
210
0.0
220
0.0
230
1.0
  2
SOLID
 70
     1
 71
     1
 91
        1
 92
        1
 93
        1
 72
     4
 94
        3
 73
     0
 74
     0
 95
       17
 96
       13
 40
0.0
 40
0.0
 40
0.0
 40
0.0
 40
1.0
 40
1.0
 40
1.0
 40
2.0
 40
2.0
 40
2.0
 40
3.0
 40
3.0
 40
3.0
 40
4.0
 40
4.0
 40
4.0
 40
4.0
 10
33.10237222479733
 20
-2.431031629166547
 10
33.10237222479733
 20
-2.431031629166547
 10
33.25412868092259
 20
-2.431031629166547
 10
33.25412868092259
 20
-2.431031629166547
 10
33.25412868092259
 20
-2.431031629166547
 10
33.25412868092259
 20
-4.366141763231381
 10
33.25412868092259
 20
-4.366141763231381
 10
33.25412868092259
 20
-4.366141763231381
 10
33.10237222479733
 20
-4.366141763231381
 10
33.10237222479733
 20
-4.366141763231381
 10
33.10237222479733
 20
-4.366141763231381
 10
33.10237222479733
 20
-2.431031629166547
 10
33.10237222479733
 20
-2.431031629166547
 97
        0
 97
        1
330
C9
 75
     2
 76
     1
 98
        1
 10
0.0
 20
0.0
450
        0
451
        0
460
0.0
461
0.0
452
        0
462
0.0
453
        0
470

  0
SPLINE
  5
CB
330
7D
100
AcDbEntity
  8
レイヤー 1
100
AcDbSpline
210
0.0
220
0.0
230
1.0
 70
    11
 71
     3
 72
    17
 73
    13
 74
     0
 42
0.0000000001
 43
0.0000000001
 40
0.0
 40
0.0
 40
0.0
 40
0.0
 40
1.0
 40
1.0
 40
1.0
 40
2.0
 40
2.0
 40
2.0
 40
3.0
 40
3.0
 40
3.0
 40
4.0
 40
4.0
 40
4.0
 40
4.0
 10
33.63894584662499
 20
-2.973117403770609
 30
0.0
 10
33.63894584662499
 20
-2.973117403770609
 30
0.0
 10
33.79070230275024
 20
-2.973117403770609
 30
0.0
 10
33.79070230275024
 20
-2.973117403770609
 30
0.0
 10
33.79070230275024
 20
-2.973117403770609
 30
0.0
 10
33.79070230275024
 20
-4.366141763231381
 30
0.0
 10
33.79070230275024
 20
-4.366141763231381
 30
0.0
 10
33.79070230275024
 20
-4.366141763231381
 30
0.0
 10
33.63894584662499
 20
-4.366141763231381
 30
0.0
 10
33.63894584662499
 20
-4.366141763231381
 30
0.0
 10
33.63894584662499
 20
-4.366141763231381
 30
0.0
 10
33.63894584662499
 20
-2.973117403770609
 30
0.0
 10
33.63894584662499
 20
-2.973117403770609
 30
0.0
  0
SPLINE
  5
CC
330
7D
100
AcDbEntity
  8
レイヤー 1
100
AcDbSpline
210
0.0
220
0.0
230
1.0
 70
    11
 71
     3
 72
    17
 73
    13
 74
     0
 42
0.0000000001
 43
0.0000000001
 40
0.0
 40
0.0
 40
0.0
 40
0.0
 40
1.0
 40
1.0
 40
1.0
 40
2.0
 40
2.0
 40
2.0
 40
3.0
 40
3.0
 40
3.0
 40
4.0
 40
4.0
 40
4.0
 40
4.0
 10
33.63618977023679
 20
-2.431031629166547
 30
0.0
 10
33.63618977023679
 20
-2.431031629166547
 30
0.0
 10
33.79621445552665
 20
-2.431031629166547
 30
0.0
 10
33.79621445552665
 20
-2.431031629166547
 30
0.0
 10
33.79621445552665
 20
-2.431031629166547
 30
0.0
 10
33.79621445552665
 20
-2.69389241469111
 30
0.0
 10
33.79621445552665
 20
-2.69389241469111
 30
0.0
 10
33.79621445552665
 20
-2.69389241469111
 30
0.0
 10
33.63618977023679
 20
-2.69389241469111
 30
0.0
 10
33.63618977023679
 20
-2.69389241469111
 30
0.0
 10
33.63618977023679
 20
-2.69389241469111
 30
0.0
 10
33.63618977023679
 20
-2.431031629166547
 30
0.0
 10
33.63618977023679
 20
-2.431031629166547
 30
0.0
  0
HATCH
  5
CD
330
7D
100
AcDbEntity
  8
レイヤー 1
 62
   250
420
  4078137
440
 33554687
100
AcDbHatch
 10
0.0
 20
0.0
 30
0.0
210
0.0
220
0.0
230
1.0
  2
SOLID
 70
     1
 71
     1
 91
        2
 92
        1
 93
        1
 72
     4
 94
        3
 73
     0
 74
     0
 95
       17
 96
       13
 40
0.0
 40
0.0
 40
0.0
 40
0.0
 40
1.0
 40
1.0
 40
1.0
 40
2.0
 40
2.0
 40
2.0
 40
3.0
 40
3.0
 40
3.0
 40
4.0
 40
4.0
 40
4.0
 40
4.0
 10
33.63894584662499
 20
-2.973117403770609
 10
33.63894584662499
 20
-2.973117403770609
 10
33.79070230275024
 20
-2.973117403770609
 10
33.79070230275024
 20
-2.973117403770609
 10
33.79070230275024
 20
-2.973117403770609
 10
33.79070230275024
 20
-4.366141763231381
 10
33.79070230275024
 20
-4.366141763231381
 10
33.79070230275024
 20
-4.366141763231381
 10
33.63894584662499
 20
-4.366141763231381
 10
33.63894584662499
 20
-4.366141763231381
 10
33.63894584662499
 20
-4.366141763231381
 10
33.63894584662499
 20
-2.973117403770609
 10
33.63894584662499
 20
-2.973117403770609
 97
        0
 97
        1
330
CB
 92
        1
 93
        1
 72
     4
 94
        3
 73
     0
 74
     0
 95
       17
 96
       13
 40
0.0
 40
0.0
 40
0.0
 40
0.0
 40
1.0
 40
1.0
 40
1.0
 40
2.0
 40
2.0
 40
2.0
 40
3.0
 40
3.0
 40
3.0
 40
4.0
 40
4.0
 40
4.0
 40
4.0
 10
33.63618977023679
 20
-2.431031629166547
 10
33.63618977023679
 20
-2.431031629166547
 10
33.79621445552665
 20
-2.431031629166547
 10
33.79621445552665
 20
-2.431031629166547
 10
33.79621445552665
 20
-2.431031629166547
 10
33.79621445552665
 20
-2.69389241469111
 10
33.79621445552665
 20
-2.69389241469111
 10
33.79621445552665
 20
-2.69389241469111
 10
33.63618977023679
 20
-2.69389241469111
 10
33.63618977023679
 20
-2.69389241469111
 10
33.63618977023679
 20
-2.69389241469111
 10
33.63618977023679
 20
-2.431031629166547
 10
33.63618977023679
 20
-2.431031629166547
 97
        0
 97
        1
330
CC
 75
     2
 76
     1
 98
        1
 10
0.0
 20
0.0
450
        0
451
        0
460
0.0
461
0.0
452
        0
462
0.0
453
        0
470

  0
SPLINE
  5
CE
330
7D
100
AcDbEntity
  8
レイヤー 1
100
AcDbSpline
210
0.0
220
0.0
230
1.0
 70
     9
 71
     3
 72
    32
 73
    28
 74
     0
 42
0.0000000001
 43
0.0000000001
 40
0.0
 40
0.0
 40
0.0
 40
0.0
 40
1.0
 40
1.0
 40
1.0
 40
2.0
 40
2.0
 40
2.0
 40
3.0
 40
3.0
 40
3.0
 40
4.0
 40
4.0
 40
4.0
 40
5.0
 40
5.0
 40
5.0
 40
6.0
 40
6.0
 40
6.0
 40
7.0
 40
7.0
 40
7.0
 40
8.0
 40
8.0
 40
8.0
 40
9.0
 40
9.0
 40
9.0
 40
9.0
 10
34.98580592658341
 20
-3.666959634499927
 30
0.0
 10
34.98580592658341
 20
-3.264055717499958
 30
0.0
 10
34.87384032331279
 20
-3.062517631612843
 30
0.0
 10
34.64990911677155
 20
-3.062517631612843
 30
0.0
 10
34.5720499588049
 20
-3.062517631612843
 30
0.0
 10
34.50934922097335
 20
-3.085083007041229
 30
0.0
 10
34.46146239372839
 20
-3.130213757898002
 30
0.0
 10
34.41357556648342
 20
-3.175516763529037
 30
0.0
 10
34.37826333775961
 20
-3.235116915423859
 30
0.0
 10
34.35569796233121
 20
-3.309186468356731
 30
0.0
 10
34.33313258690283
 20
-3.383256021289602
 30
0.0
 10
34.32193602657577
 20
-3.465421548612811
 30
0.0
 10
34.32193602657577
 20
-3.555855305100619
 30
0.0
 10
34.32193602657577
 20
-3.555855305100619
 30
0.0
 10
34.32193602657577
 20
-3.780820040287434
 30
0.0
 10
34.32193602657577
 20
-3.780820040287434
 30
0.0
 10
34.32193602657577
 20
-3.872804089743604
 30
0.0
 10
34.33364935122562
 20
-3.956519910035175
 30
0.0
 10
34.35707600052532
 20
-4.031450736839359
 30
0.0
 10
34.38050264982501
 20
-4.106381563643544
 30
0.0
 10
34.41667615242014
 20
-4.165981715538365
 30
0.0
 10
34.46559650831069
 20
-4.210251192523826
 30
0.0
 10
34.51434460942697
 20
-4.254520669509286
 30
0.0
 10
34.57566730906442
 20
-4.276741535389148
 30
0.0
 10
34.64990911677155
 20
-4.276741535389148
 30
0.0
 10
34.87384032331279
 20
-4.276741535389148
 30
0.0
 10
34.98580592658341
 20
-4.073480901759407
 30
0.0
 10
34.98580592658341
 20
-3.666959634499927
 30
0.0
  0
SPLINE
  5
CF
330
7D
100
AcDbEntity
  8
レイヤー 1
100
AcDbSpline
210
0.0
220
0.0
230
1.0
 70
    11
 71
     3
 72
    41
 73
    37
 74
     0
 42
0.0000000001
 43
0.0000000001
 40
0.0
 40
0.0
 40
0.0
 40
0.0
 40
1.0
 40
1.0
 40
1.0
 40
2.0
 40
2.0
 40
2.0
 40
3.0
 40
3.0
 40
3.0
 40
4.0
 40
4.0
 40
4.0
 40
5.0
 40
5.0
 40
5.0
 40
6.0
 40
6.0
 40
6.0
 40
7.0
 40
7.0
 40
7.0
 40
8.0
 40
8.0
 40
8.0
 40
9.0
 40
9.0
 40
9.0
 40
10.0
 40
10.0
 40
10.0
 40
11.0
 40
11.0
 40
11.0
 40
12.0
 40
12.0
 40
12.0
 40
12.0
 10
34.17551946845265
 20
-2.973117403770609
 30
0.0
 10
34.17551946845265
 20
-2.973117403770609
 30
0.0
 10
34.32727592457791
 20
-2.973117403770609
 30
0.0
 10
34.32727592457791
 20
-2.973117403770609
 30
0.0
 10
34.32727592457791
 20
-2.973117403770609
 30
0.0
 10
34.32727592457791
 20
-3.17362196101215
 30
0.0
 10
34.32727592457791
 20
-3.17362196101215
 30
0.0
 10
34.4085801780298
 20
-3.011013454108357
 30
0.0
 10
34.52881401046502
 20
-2.929709200656461
 30
0.0
 10
34.68780516710931
 20
-2.929709200656461
 30
0.0
 10
34.83594427297504
 20
-2.929709200656461
 30
0.0
 10
34.95014918831107
 20
-2.992926702810796
 30
0.0
 10
35.03059216789166
 20
-3.119361707119465
 30
0.0
 10
35.11103514747225
 20
-3.245968966202396
 30
0.0
 10
35.15117050987541
 20
-3.427525498275063
 30
0.0
 10
35.15117050987541
 20
-3.664203558111727
 30
0.0
 10
35.15117050987541
 20
-3.899159070205766
 30
0.0
 10
35.11017387360093
 20
-4.082093640472532
 30
0.0
 10
35.02783609150346
 20
-4.213007268912026
 30
0.0
 10
34.94567056418025
 20
-4.344093152125782
 30
0.0
 10
34.82957084632733
 20
-4.409549966345529
 30
0.0
 10
34.67970919271896
 20
-4.409549966345529
 30
0.0
 10
34.60546738501183
 20
-4.409549966345529
 30
0.0
 10
34.53777125872667
 20
-4.388707138659768
 30
0.0
 10
34.47644855908922
 20
-4.347193738062506
 30
0.0
 10
34.41495360467751
 20
-4.305680337465246
 30
0.0
 10
34.36517197491566
 20
-4.247802733313049
 30
0.0
 10
34.32727592457791
 20
-4.173733180380177
 30
0.0
 10
34.32727592457791
 20
-4.173733180380177
 30
0.0
 10
34.32727592457791
 20
-4.891863334280506
 30
0.0
 10
34.32727592457791
 20
-4.891863334280506
 30
0.0
 10
34.32727592457791
 20
-4.891863334280506
 30
0.0
 10
34.17551946845265
 20
-4.891863334280506
 30
0.0
 10
34.17551946845265
 20
-4.891863334280506
 30
0.0
 10
34.17551946845265
 20
-4.891863334280506
 30
0.0
 10
34.17551946845265
 20
-2.973117403770609
 30
0.0
 10
34.17551946845265
 20
-2.973117403770609
 30
0.0
  0
HATCH
  5
D0
330
7D
100
AcDbEntity
  8
レイヤー 1
 62
   250
420
  4078137
440
 33554687
100
AcDbHatch
 10
0.0
 20
0.0
 30
0.0
210
0.0
220
0.0
230
1.0
  2
SOLID
 70
     1
 71
     1
 91
        2
 92
        1
 93
        1
 72
     4
 94
        3
 73
     0
 74
     0
 95
       32
 96
       28
 40
0.0
 40
0.0
 40
0.0
 40
0.0
 40
1.0
 40
1.0
 40
1.0
 40
2.0
 40
2.0
 40
2.0
 40
3.0
 40
3.0
 40
3.0
 40
4.0
 40
4.0
 40
4.0
 40
5.0
 40
5.0
 40
5.0
 40
6.0
 40
6.0
 40
6.0
 40
7.0
 40
7.0
 40
7.0
 40
8.0
 40
8.0
 40
8.0
 40
9.0
 40
9.0
 40
9.0
 40
9.0
 10
34.98580592658341
 20
-3.666959634499927
 10
34.98580592658341
 20
-3.264055717499958
 10
34.87384032331279
 20
-3.062517631612843
 10
34.64990911677155
 20
-3.062517631612843
 10
34.5720499588049
 20
-3.062517631612843
 10
34.50934922097335
 20
-3.085083007041229
 10
34.46146239372839
 20
-3.130213757898002
 10
34.41357556648342
 20
-3.175516763529037
 10
34.37826333775961
 20
-3.235116915423859
 10
34.35569796233121
 20
-3.309186468356731
 10
34.33313258690283
 20
-3.383256021289602
 10
34.32193602657577
 20
-3.465421548612811
 10
34.32193602657577
 20
-3.555855305100619
 10
34.32193602657577
 20
-3.555855305100619
 10
34.32193602657577
 20
-3.780820040287434
 10
34.32193602657577
 20
-3.780820040287434
 10
34.32193602657577
 20
-3.872804089743604
 10
34.33364935122562
 20
-3.956519910035175
 10
34.35707600052532
 20
-4.031450736839359
 10
34.38050264982501
 20
-4.106381563643544
 10
34.41667615242014
 20
-4.165981715538365
 10
34.46559650831069
 20
-4.210251192523826
 10
34.51434460942697
 20
-4.254520669509286
 10
34.57566730906442
 20
-4.276741535389148
 10
34.64990911677155
 20
-4.276741535389148
 10
34.87384032331279
 20
-4.276741535389148
 10
34.98580592658341
 20
-4.073480901759407
 10
34.98580592658341
 20
-3.666959634499927
 97
        0
 97
        1
330
CE
 92
        1
 93
        1
 72
     4
 94
        3
 73
     0
 74
     0
 95
       41
 96
       37
 40
0.0
 40
0.0
 40
0.0
 40
0.0
 40
1.0
 40
1.0
 40
1.0
 40
2.0
 40
2.0
 40
2.0
 40
3.0
 40
3.0
 40
3.0
 40
4.0
 40
4.0
 40
4.0
 40
5.0
 40
5.0
 40
5.0
 40
6.0
 40
6.0
 40
6.0
 40
7.0
 40
7.0
 40
7.0
 40
8.0
 40
8.0
 40
8.0
 40
9.0
 40
9.0
 40
9.0
 40
10.0
 40
10.0
 40
10.0
 40
11.0
 40
11.0
 40
11.0
 40
12.0
 40
12.0
 40
12.0
 40
12.0
 10
34.17551946845265
 20
-2.973117403770609
 10
34.17551946845265
 20
-2.973117403770609
 10
34.32727592457791
 20
-2.973117403770609
 10
34.32727592457791
 20
-2.973117403770609
 10
34.32727592457791
 20
-2.973117403770609
 10
34.32727592457791
 20
-3.17362196101215
 10
34.32727592457791
 20
-3.17362196101215
 10
34.4085801780298
 20
-3.011013454108357
 10
34.52881401046502
 20
-2.929709200656461
 10
34.68780516710931
 20
-2.929709200656461
 10
34.83594427297504
 20
-2.929709200656461
 10
34.95014918831107
 20
-2.992926702810796
 10
35.03059216789166
 20
-3.119361707119465
 10
35.11103514747225
 20
-3.245968966202396
 10
35.15117050987541
 20
-3.427525498275063
 10
35.15117050987541
 20
-3.664203558111727
 10
35.15117050987541
 20
-3.899159070205766
 10
35.11017387360093
 20
-4.082093640472532
 10
35.02783609150346
 20
-4.213007268912026
 10
34.94567056418025
 20
-4.344093152125782
 10
34.82957084632733
 20
-4.409549966345529
 10
34.67970919271896
 20
-4.409549966345529
 10
34.60546738501183
 20
-4.409549966345529
 10
34.53777125872667
 20
-4.388707138659768
 10
34.47644855908922
 20
-4.347193738062506
 10
34.41495360467751
 20
-4.305680337465246
 10
34.36517197491566
 20
-4.247802733313049
 10
34.32727592457791
 20
-4.173733180380177
 10
34.32727592457791
 20
-4.173733180380177
 10
34.32727592457791
 20
-4.891863334280506
 10
34.32727592457791
 20
-4.891863334280506
 10
34.32727592457791
 20
-4.891863334280506
 10
34.17551946845265
 20
-4.891863334280506
 10
34.17551946845265
 20
-4.891863334280506
 10
34.17551946845265
 20
-4.891863334280506
 10
34.17551946845265
 20
-2.973117403770609
 10
34.17551946845265
 20
-2.973117403770609
 97
        0
 97
        1
330
CF
 75
     2
 76
     1
 98
        1
 10
0.0
 20
0.0
450
        0
451
        0
460
0.0
461
0.0
452
        0
462
0.0
453
        0
470

  0
ENDBLK
  5
80
330
7D
100
AcDbEntity
  8
0
100
AcDbBlockEnd
  0
BLOCK
  5
D6
330
D4
100
AcDbEntity
  8
0
100
AcDbBlockBegin
  2
Block_2
 70
     0
 10
0.0
 20
0.0
 30
0.0
  3
Block_2
  1

  0
INSERT
  5
D9
330
D4
100
AcDbEntity
  8
レイヤー 1
100
AcDbBlockReference
  2
Block_3
 10
0.0
 20
0.0
 30
0.0
  0
ENDBLK
  5
D7
330
D4
100
AcDbEntity
  8
0
100
AcDbBlockEnd
  0
BLOCK
  5
DA
330
D8
100
AcDbEntity
  8
0
100
AcDbBlockBegin
  2
Block_3
 70
     0
 10
0.0
 20
0.0
 30
0.0
  3
Block_3
  1

  0
SPLINE
  5
DC
330
D8
100
AcDbEntity
  8
レイヤー 1
100
AcDbSpline
210
0.0
220
0.0
230
1.0
 70
    11
 71
     3
 72
    26
 73
    22
 74
     0
 42
0.0000000001
 43
0.0000000001
 40
0.0
 40
0.0
 40
0.0
 40
0.0
 40
1.0
 40
1.0
 40
1.0
 40
2.0
 40
2.0
 40
2.0
 40
3.0
 40
3.0
 40
3.0
 40
4.0
 40
4.0
 40
4.0
 40
5.0
 40
5.0
 40
5.0
 40
6.0
 40
6.0
 40
6.0
 40
7.0
 40
7.0
 40
7.0
 40
7.0
 10
48.98564044999318
 20
-52.74406736962649
 30
0.0
 10
48.98564044999318
 20
-52.74406736962649
 30
0.0
 10
48.58290878776747
 20
-52.98350150585135
 30
0.0
 10
48.58290878776747
 20
-52.98350150585135
 30
0.0
 10
48.58290878776747
 20
-52.98350150585135
 30
0.0
 10
48.51883001174182
 20
-52.87222492167778
 30
0.0
 10
48.51883001174182
 20
-52.87222492167778
 30
0.0
 10
48.51883001174182
 20
-52.87222492167778
 30
0.0
 10
48.99769828419155
 20
-52.58352592001384
 30
0.0
 10
48.99769828419155
 20
-52.58352592001384
 30
0.0
 10
48.99769828419155
 20
-52.58352592001384
 30
0.0
 10
49.13377955585891
 20
-52.58352592001384
 30
0.0
 10
49.13377955585891
 20
-52.58352592001384
 30
0.0
 10
49.13377955585891
 20
-52.58352592001384
 30
0.0
 10
49.13377955585891
 20
-54.28988171385809
 30
0.0
 10
49.13377955585891
 20
-54.28988171385809
 30
0.0
 10
49.13377955585891
 20
-54.28988171385809
 30
0.0
 10
48.98564044999318
 20
-54.28988171385809
 30
0.0
 10
48.98564044999318
 20
-54.28988171385809
 30
0.0
 10
48.98564044999318
 20
-54.28988171385809
 30
0.0
 10
48.98564044999318
 20
-52.74406736962649
 30
0.0
 10
48.98564044999318
 20
-52.74406736962649
 30
0.0
  0
HATCH
  5
DD
330
D8
100
AcDbEntity
  8
レイヤー 1
 62
   250
420
  4078137
440
 33554687
100
AcDbHatch
 10
0.0
 20
0.0
 30
0.0
210
0.0
220
0.0
230
1.0
  2
SOLID
 70
     1
 71
     1
 91
        1
 92
        1
 93
        1
 72
     4
 94
        3
 73
     0
 74
     0
 95
       26
 96
       22
 40
0.0
 40
0.0
 40
0.0
 40
0.0
 40
1.0
 40
1.0
 40
1.0
 40
2.0
 40
2.0
 40
2.0
 40
3.0
 40
3.0
 40
3.0
 40
4.0
 40
4.0
 40
4.0
 40
5.0
 40
5.0
 40
5.0
 40
6.0
 40
6.0
 40
6.0
 40
7.0
 40
7.0
 40
7.0
 40
7.0
 10
48.98564044999318
 20
-52.74406736962649
 10
48.98564044999318
 20
-52.74406736962649
 10
48.58290878776747
 20
-52.98350150585135
 10
48.58290878776747
 20
-52.98350150585135
 10
48.58290878776747
 20
-52.98350150585135
 10
48.51883001174182
 20
-52.87222492167778
 10
48.51883001174182
 20
-52.87222492167778
 10
48.51883001174182
 20
-52.87222492167778
 10
48.99769828419155
 20
-52.58352592001384
 10
48.99769828419155
 20
-52.58352592001384
 10
48.99769828419155
 20
-52.58352592001384
 10
49.13377955585891
 20
-52.58352592001384
 10
49.13377955585891
 20
-52.58352592001384
 10
49.13377955585891
 20
-52.58352592001384
 10
49.13377955585891
 20
-54.28988171385809
 10
49.13377955585891
 20
-54.28988171385809
 10
49.13377955585891
 20
-54.28988171385809
 10
48.98564044999318
 20
-54.28988171385809
 10
48.98564044999318
 20
-54.28988171385809
 10
48.98564044999318
 20
-54.28988171385809
 10
48.98564044999318
 20
-52.74406736962649
 10
48.98564044999318
 20
-52.74406736962649
 97
        0
 97
        1
330
DC
 75
     2
 76
     1
 98
        1
 10
0.0
 20
0.0
450
        0
451
        0
460
0.0
461
0.0
452
        0
462
0.0
453
        0
470

  0
SPLINE
  5
DE
330
D8
100
AcDbEntity
  8
レイヤー 1
100
AcDbSpline
210
0.0
220
0.0
230
1.0
 70
     9
 71
     3
 72
    29
 73
    25
 74
     0
 42
0.0000000001
 43
0.0000000001
 40
0.0
 40
0.0
 40
0.0
 40
0.0
 40
1.0
 40
1.0
 40
1.0
 40
2.0
 40
2.0
 40
2.0
 40
3.0
 40
3.0
 40
3.0
 40
4.0
 40
4.0
 40
4.0
 40
5.0
 40
5.0
 40
5.0
 40
6.0
 40
6.0
 40
6.0
 40
7.0
 40
7.0
 40
7.0
 40
8.0
 40
8.0
 40
8.0
 40
8.0
 10
49.83485648710725
 20
-53.74900172267386
 30
0.0
 10
49.83485648710725
 20
-53.88887259937501
 30
0.0
 10
49.86620685602304
 20
-54.00014918354858
 30
0.0
 10
49.92890759385458
 20
-54.08248696564605
 30
0.0
 10
49.9912638221376
 20
-54.16482474774351
 30
0.0
 10
50.07532415197769
 20
-54.20582138401799
 30
0.0
 10
50.18074407382634
 20
-54.20582138401799
 30
0.0
 10
50.29098712935434
 20
-54.20582138401799
 30
0.0
 10
50.37573647829148
 20
-54.16723631458319
 30
0.0
 10
50.43499212063778
 20
-54.08972166616507
 30
0.0
 10
50.49407550820982
 20
-54.01255152729548
 30
0.0
 10
50.52370332938297
 20
-53.90196396221895
 30
0.0
 10
50.52370332938297
 20
-53.75899249958109
 30
0.0
 10
50.52370332938297
 20
-53.62049966107404
 30
0.0
 10
50.49442001775834
 20
-53.51439072012834
 30
0.0
 10
50.43637015883188
 20
-53.44032116719548
 30
0.0
 10
50.37780353558264
 20
-53.36625161426261
 30
0.0
 10
50.29512124393664
 20
-53.32904458302191
 30
0.0
 10
50.18797877434536
 20
-53.32904458302191
 30
0.0
 10
50.07945826655999
 20
-53.32904458302191
 30
0.0
 10
49.99333087942876
 20
-53.36659612381112
 30
0.0
 10
49.92994112250015
 20
-53.44169920538957
 30
0.0
 10
49.86655136557156
 20
-53.5164577774195
 30
0.0
 10
49.83485648710725
 20
-53.61912162287994
 30
0.0
 10
49.83485648710725
 20
-53.74900172267386
 30
0.0
  0
SPLINE
  5
DF
330
D8
100
AcDbEntity
  8
レイヤー 1
100
AcDbSpline
210
0.0
220
0.0
230
1.0
 70
     9
 71
     3
 72
    53
 73
    49
 74
     0
 42
0.0000000001
 43
0.0000000001
 40
0.0
 40
0.0
 40
0.0
 40
0.0
 40
1.0
 40
1.0
 40
1.0
 40
2.0
 40
2.0
 40
2.0
 40
3.0
 40
3.0
 40
3.0
 40
4.0
 40
4.0
 40
4.0
 40
5.0
 40
5.0
 40
5.0
 40
6.0
 40
6.0
 40
6.0
 40
7.0
 40
7.0
 40
7.0
 40
8.0
 40
8.0
 40
8.0
 40
9.0
 40
9.0
 40
9.0
 40
10.0
 40
10.0
 40
10.0
 40
11.0
 40
11.0
 40
11.0
 40
12.0
 40
12.0
 40
12.0
 40
13.0
 40
13.0
 40
13.0
 40
14.0
 40
14.0
 40
14.0
 40
15.0
 40
15.0
 40
15.0
 40
16.0
 40
16.0
 40
16.0
 40
16.0
 10
49.67431503749462
 20
-53.51680228696802
 30
0.0
 10
49.67431503749462
 20
-52.86326767341613
 30
0.0
 10
49.85311549317908
 20
-52.53632811186592
 30
0.0
 10
50.21037189499949
 20
-52.53632811186592
 30
0.0
 10
50.44257133070534
 20
-52.53632811186592
 30
0.0
 10
50.58295897172926
 20
-52.66414115436869
 30
0.0
 10
50.63256834671686
 20
-52.9194227298257
 30
0.0
 10
50.63256834671686
 20
-52.9194227298257
 30
0.0
 10
50.50165471827736
 20
-52.9414713409313
 30
0.0
 10
50.50165471827736
 20
-52.9414713409313
 30
0.0
 10
50.48029512626881
 20
-52.84431964824726
 30
0.0
 10
50.44601642619058
 20
-52.77403970034816
 30
0.0
 10
50.39916312759118
 20
-52.73028698768548
 30
0.0
 10
50.35230982899179
 20
-52.68687878457134
 30
0.0
 10
50.28685301477204
 20
-52.66483017346573
 30
0.0
 10
50.20279268493194
 20
-52.66483017346573
 30
0.0
 10
50.07773571881737
 20
-52.66483017346573
 30
0.0
 10
49.98299559297301
 20
-52.72580836355466
 30
0.0
 10
49.91891681694736
 20
-52.8477647437325
 30
0.0
 10
49.8548380409217
 20
-52.96937661436182
 30
0.0
 10
49.82004257652068
 20
-53.15782333740499
 30
0.0
 10
49.81521944284134
 20
-53.41310491286201
 30
0.0
 10
49.81521944284134
 20
-53.41310491286201
 30
0.0
 10
49.81521944284134
 20
-53.46512585468928
 30
0.0
 10
49.81521944284134
 20
-53.46512585468928
 30
0.0
 10
49.85311549317908
 20
-53.38278807259181
 30
0.0
 10
49.90685898274898
 20
-53.31836478701763
 30
0.0
 10
49.97679442109955
 20
-53.27254501706381
 30
0.0
 10
50.04707436899865
 20
-53.22638073756146
 30
0.0
 10
50.1263115651594
 20
-53.20329859781029
 30
0.0
 10
50.21519502867884
 20
-53.20329859781029
 30
0.0
 10
50.35506590537998
 20
-53.20329859781029
 30
0.0
 10
50.46479219658519
 20
-53.25221895370084
 30
0.0
 10
50.54471841184298
 20
-53.35005966548193
 30
0.0
 10
50.62464462710078
 20
-53.44824488681155
 30
0.0
 10
50.66460773472968
 20
-53.58363713938187
 30
0.0
 10
50.66460773472968
 20
-53.75623642319289
 30
0.0
 10
50.66460773472968
 20
-53.93262531203768
 30
0.0
 10
50.62051051251849
 20
-54.07284069828735
 30
0.0
 10
50.53231606809609
 20
-54.17757160103894
 30
0.0
 10
50.44463838799648
 20
-54.28195799424202
 30
0.0
 10
50.32647161285241
 20
-54.33432344561781
 30
0.0
 10
50.17833250698667
 20
-54.33432344561781
 30
0.0
 10
50.00848929956386
 20
-54.33432344561781
 30
0.0
 10
49.88239880480371
 20
-54.26714408365544
 30
0.0
 10
49.79902749406066
 20
-54.13312986927922
 30
0.0
 10
49.71600069286614
 20
-53.99877114535447
 30
0.0
 10
49.67431503749462
 20
-53.79344345443358
 30
0.0
 10
49.67431503749462
 20
-53.51680228696802
 30
0.0
  0
HATCH
  5
E0
330
D8
100
AcDbEntity
  8
レイヤー 1
 62
   250
420
  4078137
440
 33554687
100
AcDbHatch
 10
0.0
 20
0.0
 30
0.0
210
0.0
220
0.0
230
1.0
  2
SOLID
 70
     1
 71
     1
 91
        2
 92
        1
 93
        1
 72
     4
 94
        3
 73
     0
 74
     0
 95
       29
 96
       25
 40
0.0
 40
0.0
 40
0.0
 40
0.0
 40
1.0
 40
1.0
 40
1.0
 40
2.0
 40
2.0
 40
2.0
 40
3.0
 40
3.0
 40
3.0
 40
4.0
 40
4.0
 40
4.0
 40
5.0
 40
5.0
 40
5.0
 40
6.0
 40
6.0
 40
6.0
 40
7.0
 40
7.0
 40
7.0
 40
8.0
 40
8.0
 40
8.0
 40
8.0
 10
49.83485648710725
 20
-53.74900172267386
 10
49.83485648710725
 20
-53.88887259937501
 10
49.86620685602304
 20
-54.00014918354858
 10
49.92890759385458
 20
-54.08248696564605
 10
49.9912638221376
 20
-54.16482474774351
 10
50.07532415197769
 20
-54.20582138401799
 10
50.18074407382634
 20
-54.20582138401799
 10
50.29098712935434
 20
-54.20582138401799
 10
50.37573647829148
 20
-54.16723631458319
 10
50.43499212063778
 20
-54.08972166616507
 10
50.49407550820982
 20
-54.01255152729548
 10
50.52370332938297
 20
-53.90196396221895
 10
50.52370332938297
 20
-53.75899249958109
 10
50.52370332938297
 20
-53.62049966107404
 10
50.49442001775834
 20
-53.51439072012834
 10
50.43637015883188
 20
-53.44032116719548
 10
50.37780353558264
 20
-53.36625161426261
 10
50.29512124393664
 20
-53.32904458302191
 10
50.18797877434536
 20
-53.32904458302191
 10
50.07945826655999
 20
-53.32904458302191
 10
49.99333087942876
 20
-53.36659612381112
 10
49.92994112250015
 20
-53.44169920538957
 10
49.86655136557156
 20
-53.5164577774195
 10
49.83485648710725
 20
-53.61912162287994
 10
49.83485648710725
 20
-53.74900172267386
 97
        0
 97
        1
330
DE
 92
        1
 93
        1
 72
     4
 94
        3
 73
     0
 74
     0
 95
       53
 96
       49
 40
0.0
 40
0.0
 40
0.0
 40
0.0
 40
1.0
 40
1.0
 40
1.0
 40
2.0
 40
2.0
 40
2.0
 40
3.0
 40
3.0
 40
3.0
 40
4.0
 40
4.0
 40
4.0
 40
5.0
 40
5.0
 40
5.0
 40
6.0
 40
6.0
 40
6.0
 40
7.0
 40
7.0
 40
7.0
 40
8.0
 40
8.0
 40
8.0
 40
9.0
 40
9.0
 40
9.0
 40
10.0
 40
10.0
 40
10.0
 40
11.0
 40
11.0
 40
11.0
 40
12.0
 40
12.0
 40
12.0
 40
13.0
 40
13.0
 40
13.0
 40
14.0
 40
14.0
 40
14.0
 40
15.0
 40
15.0
 40
15.0
 40
16.0
 40
16.0
 40
16.0
 40
16.0
 10
49.67431503749462
 20
-53.51680228696802
 10
49.67431503749462
 20
-52.86326767341613
 10
49.85311549317908
 20
-52.53632811186592
 10
50.21037189499949
 20
-52.53632811186592
 10
50.44257133070534
 20
-52.53632811186592
 10
50.58295897172926
 20
-52.66414115436869
 10
50.63256834671686
 20
-52.9194227298257
 10
50.63256834671686
 20
-52.9194227298257
 10
50.50165471827736
 20
-52.9414713409313
 10
50.50165471827736
 20
-52.9414713409313
 10
50.48029512626881
 20
-52.84431964824726
 10
50.44601642619058
 20
-52.77403970034816
 10
50.39916312759118
 20
-52.73028698768548
 10
50.35230982899179
 20
-52.68687878457134
 10
50.28685301477204
 20
-52.66483017346573
 10
50.20279268493194
 20
-52.66483017346573
 10
50.07773571881737
 20
-52.66483017346573
 10
49.98299559297301
 20
-52.72580836355466
 10
49.91891681694736
 20
-52.8477647437325
 10
49.8548380409217
 20
-52.96937661436182
 10
49.82004257652068
 20
-53.15782333740499
 10
49.81521944284134
 20
-53.41310491286201
 10
49.81521944284134
 20
-53.41310491286201
 10
49.81521944284134
 20
-53.46512585468928
 10
49.81521944284134
 20
-53.46512585468928
 10
49.85311549317908
 20
-53.38278807259181
 10
49.90685898274898
 20
-53.31836478701763
 10
49.97679442109955
 20
-53.27254501706381
 10
50.04707436899865
 20
-53.22638073756146
 10
50.1263115651594
 20
-53.20329859781029
 10
50.21519502867884
 20
-53.20329859781029
 10
50.35506590537998
 20
-53.20329859781029
 10
50.46479219658519
 20
-53.25221895370084
 10
50.54471841184298
 20
-53.35005966548193
 10
50.62464462710078
 20
-53.44824488681155
 10
50.66460773472968
 20
-53.58363713938187
 10
50.66460773472968
 20
-53.75623642319289
 10
50.66460773472968
 20
-53.93262531203768
 10
50.62051051251849
 20
-54.07284069828735
 10
50.53231606809609
 20
-54.17757160103894
 10
50.44463838799648
 20
-54.28195799424202
 10
50.32647161285241
 20
-54.33432344561781
 10
50.17833250698667
 20
-54.33432344561781
 10
50.00848929956386
 20
-54.33432344561781
 10
49.88239880480371
 20
-54.26714408365544
 10
49.79902749406066
 20
-54.13312986927922
 10
49.71600069286614
 20
-53.99877114535447
 10
49.67431503749462
 20
-53.79344345443358
 10
49.67431503749462
 20
-53.51680228696802
 97
        0
 97
        1
330
DF
 75
     2
 76
     1
 98
        1
 10
0.0
 20
0.0
450
        0
451
        0
460
0.0
461
0.0
452
        0
462
0.0
453
        0
470

  0
SPLINE
  5
E1
330
D8
100
AcDbEntity
  8
レイヤー 1
100
AcDbSpline
210
0.0
220
0.0
230
1.0
 70
    11
 71
     3
 72
    17
 73
    13
 74
     0
 42
0.0000000001
 43
0.0000000001
 40
0.0
 40
0.0
 40
0.0
 40
0.0
 40
1.0
 40
1.0
 40
1.0
 40
2.0
 40
2.0
 40
2.0
 40
3.0
 40
3.0
 40
3.0
 40
4.0
 40
4.0
 40
4.0
 40
4.0
 10
50.92884655844835
 20
-54.02323132329975
 30
0.0
 10
50.92884655844835
 20
-54.02323132329975
 30
0.0
 10
51.09179957490066
 20
-54.02323132329975
 30
0.0
 10
51.09179957490066
 20
-54.02323132329975
 30
0.0
 10
51.09179957490066
 20
-54.02323132329975
 30
0.0
 10
51.09179957490066
 20
-54.28988171385809
 30
0.0
 10
51.09179957490066
 20
-54.28988171385809
 30
0.0
 10
51.09179957490066
 20
-54.28988171385809
 30
0.0
 10
50.92884655844835
 20
-54.28988171385809
 30
0.0
 10
50.92884655844835
 20
-54.28988171385809
 30
0.0
 10
50.92884655844835
 20
-54.28988171385809
 30
0.0
 10
50.92884655844835
 20
-54.02323132329975
 30
0.0
 10
50.92884655844835
 20
-54.02323132329975
 30
0.0
  0
HATCH
  5
E2
330
D8
100
AcDbEntity
  8
レイヤー 1
 62
   250
420
  4078137
440
 33554687
100
AcDbHatch
 10
0.0
 20
0.0
 30
0.0
210
0.0
220
0.0
230
1.0
  2
SOLID
 70
     1
 71
     1
 91
        1
 92
        1
 93
        1
 72
     4
 94
        3
 73
     0
 74
     0
 95
       17
 96
       13
 40
0.0
 40
0.0
 40
0.0
 40
0.0
 40
1.0
 40
1.0
 40
1.0
 40
2.0
 40
2.0
 40
2.0
 40
3.0
 40
3.0
 40
3.0
 40
4.0
 40
4.0
 40
4.0
 40
4.0
 10
50.92884655844835
 20
-54.02323132329975
 10
50.92884655844835
 20
-54.02323132329975
 10
51.09179957490066
 20
-54.02323132329975
 10
51.09179957490066
 20
-54.02323132329975
 10
51.09179957490066
 20
-54.02323132329975
 10
51.09179957490066
 20
-54.28988171385809
 10
51.09179957490066
 20
-54.28988171385809
 10
51.09179957490066
 20
-54.28988171385809
 10
50.92884655844835
 20
-54.28988171385809
 10
50.92884655844835
 20
-54.28988171385809
 10
50.92884655844835
 20
-54.28988171385809
 10
50.92884655844835
 20
-54.02323132329975
 10
50.92884655844835
 20
-54.02323132329975
 97
        0
 97
        1
330
E1
 75
     2
 76
     1
 98
        1
 10
0.0
 20
0.0
450
        0
451
        0
460
0.0
461
0.0
452
        0
462
0.0
453
        0
470

  0
SPLINE
  5
E3
330
D8
100
AcDbEntity
  8
レイヤー 1
100
AcDbSpline
210
0.0
220
0.0
230
1.0
 70
    11
 71
     3
 72
    14
 73
    10
 74
     0
 42
0.0000000001
 43
0.0000000001
 40
0.0
 40
0.0
 40
0.0
 40
0.0
 40
1.0
 40
1.0
 40
1.0
 40
2.0
 40
2.0
 40
2.0
 40
3.0
 40
3.0
 40
3.0
 40
3.0
 10
52.0671061067749
 20
-52.80056693558458
 30
0.0
 10
52.0671061067749
 20
-52.80056693558458
 30
0.0
 10
51.48901908434996
 20
-53.71937390150072
 30
0.0
 10
51.48901908434996
 20
-53.71937390150072
 30
0.0
 10
51.48901908434996
 20
-53.71937390150072
 30
0.0
 10
52.0671061067749
 20
-53.71937390150072
 30
0.0
 10
52.0671061067749
 20
-53.71937390150072
 30
0.0
 10
52.0671061067749
 20
-53.71937390150072
 30
0.0
 10
52.0671061067749
 20
-52.80056693558458
 30
0.0
 10
52.0671061067749
 20
-52.80056693558458
 30
0.0
  0
SPLINE
  5
E4
330
D8
100
AcDbEntity
  8
レイヤー 1
100
AcDbSpline
210
0.0
220
0.0
230
1.0
 70
    11
 71
     3
 72
    38
 73
    34
 74
     0
 42
0.0000000001
 43
0.0000000001
 40
0.0
 40
0.0
 40
0.0
 40
0.0
 40
1.0
 40
1.0
 40
1.0
 40
2.0
 40
2.0
 40
2.0
 40
3.0
 40
3.0
 40
3.0
 40
4.0
 40
4.0
 40
4.0
 40
5.0
 40
5.0
 40
5.0
 40
6.0
 40
6.0
 40
6.0
 40
7.0
 40
7.0
 40
7.0
 40
8.0
 40
8.0
 40
8.0
 40
9.0
 40
9.0
 40
9.0
 40
10.0
 40
10.0
 40
10.0
 40
11.0
 40
11.0
 40
11.0
 40
11.0
 10
52.0671061067749
 20
-53.84029675303298
 30
0.0
 10
52.0671061067749
 20
-53.84029675303298
 30
0.0
 10
51.33846841164455
 20
-53.84029675303298
 30
0.0
 10
51.33846841164455
 20
-53.84029675303298
 30
0.0
 10
51.33846841164455
 20
-53.84029675303298
 30
0.0
 10
51.33846841164455
 20
-53.72660860201974
 30
0.0
 10
51.33846841164455
 20
-53.72660860201974
 30
0.0
 10
51.33846841164455
 20
-53.72660860201974
 30
0.0
 10
52.06193846354701
 20
-52.58352592001384
 30
0.0
 10
52.06193846354701
 20
-52.58352592001384
 30
0.0
 10
52.06193846354701
 20
-52.58352592001384
 30
0.0
 10
52.20525443573341
 20
-52.58352592001384
 30
0.0
 10
52.20525443573341
 20
-52.58352592001384
 30
0.0
 10
52.20525443573341
 20
-52.58352592001384
 30
0.0
 10
52.20525443573341
 20
-53.71937390150072
 30
0.0
 10
52.20525443573341
 20
-53.71937390150072
 30
0.0
 10
52.20525443573341
 20
-53.71937390150072
 30
0.0
 10
52.41023761710578
 20
-53.71937390150072
 30
0.0
 10
52.41023761710578
 20
-53.71937390150072
 30
0.0
 10
52.41023761710578
 20
-53.71937390150072
 30
0.0
 10
52.38818900600017
 20
-53.84029675303298
 30
0.0
 10
52.38818900600017
 20
-53.84029675303298
 30
0.0
 10
52.38818900600017
 20
-53.84029675303298
 30
0.0
 10
52.20525443573341
 20
-53.84029675303298
 30
0.0
 10
52.20525443573341
 20
-53.84029675303298
 30
0.0
 10
52.20525443573341
 20
-53.84029675303298
 30
0.0
 10
52.20525443573341
 20
-54.28988171385809
 30
0.0
 10
52.20525443573341
 20
-54.28988171385809
 30
0.0
 10
52.20525443573341
 20
-54.28988171385809
 30
0.0
 10
52.0671061067749
 20
-54.28988171385809
 30
0.0
 10
52.0671061067749
 20
-54.28988171385809
 30
0.0
 10
52.0671061067749
 20
-54.28988171385809
 30
0.0
 10
52.0671061067749
 20
-53.84029675303298
 30
0.0
 10
52.0671061067749
 20
-53.84029675303298
 30
0.0
  0
HATCH
  5
E5
330
D8
100
AcDbEntity
  8
レイヤー 1
 62
   250
420
  4078137
440
 33554687
100
AcDbHatch
 10
0.0
 20
0.0
 30
0.0
210
0.0
220
0.0
230
1.0
  2
SOLID
 70
     1
 71
     1
 91
        2
 92
        1
 93
        1
 72
     4
 94
        3
 73
     0
 74
     0
 95
       14
 96
       10
 40
0.0
 40
0.0
 40
0.0
 40
0.0
 40
1.0
 40
1.0
 40
1.0
 40
2.0
 40
2.0
 40
2.0
 40
3.0
 40
3.0
 40
3.0
 40
3.0
 10
52.0671061067749
 20
-52.80056693558458
 10
52.0671061067749
 20
-52.80056693558458
 10
51.48901908434996
 20
-53.71937390150072
 10
51.48901908434996
 20
-53.71937390150072
 10
51.48901908434996
 20
-53.71937390150072
 10
52.0671061067749
 20
-53.71937390150072
 10
52.0671061067749
 20
-53.71937390150072
 10
52.0671061067749
 20
-53.71937390150072
 10
52.0671061067749
 20
-52.80056693558458
 10
52.0671061067749
 20
-52.80056693558458
 97
        0
 97
        1
330
E3
 92
        1
 93
        1
 72
     4
 94
        3
 73
     0
 74
     0
 95
       38
 96
       34
 40
0.0
 40
0.0
 40
0.0
 40
0.0
 40
1.0
 40
1.0
 40
1.0
 40
2.0
 40
2.0
 40
2.0
 40
3.0
 40
3.0
 40
3.0
 40
4.0
 40
4.0
 40
4.0
 40
5.0
 40
5.0
 40
5.0
 40
6.0
 40
6.0
 40
6.0
 40
7.0
 40
7.0
 40
7.0
 40
8.0
 40
8.0
 40
8.0
 40
9.0
 40
9.0
 40
9.0
 40
10.0
 40
10.0
 40
10.0
 40
11.0
 40
11.0
 40
11.0
 40
11.0
 10
52.0671061067749
 20
-53.84029675303298
 10
52.0671061067749
 20
-53.84029675303298
 10
51.33846841164455
 20
-53.84029675303298
 10
51.33846841164455
 20
-53.84029675303298
 10
51.33846841164455
 20
-53.84029675303298
 10
51.33846841164455
 20
-53.72660860201974
 10
51.33846841164455
 20
-53.72660860201974
 10
51.33846841164455
 20
-53.72660860201974
 10
52.06193846354701
 20
-52.58352592001384
 10
52.06193846354701
 20
-52.58352592001384
 10
52.06193846354701
 20
-52.58352592001384
 10
52.20525443573341
 20
-52.58352592001384
 10
52.20525443573341
 20
-52.58352592001384
 10
52.20525443573341
 20
-52.58352592001384
 10
52.20525443573341
 20
-53.71937390150072
 10
52.20525443573341
 20
-53.71937390150072
 10
52.20525443573341
 20
-53.71937390150072
 10
52.41023761710578
 20
-53.71937390150072
 10
52.41023761710578
 20
-53.71937390150072
 10
52.41023761710578
 20
-53.71937390150072
 10
52.38818900600017
 20
-53.84029675303298
 10
52.38818900600017
 20
-53.84029675303298
 10
52.38818900600017
 20
-53.84029675303298
 10
52.20525443573341
 20
-53.84029675303298
 10
52.20525443573341
 20
-53.84029675303298
 10
52.20525443573341
 20
-53.84029675303298
 10
52.20525443573341
 20
-54.28988171385809
 10
52.20525443573341
 20
-54.28988171385809
 10
52.20525443573341
 20
-54.28988171385809
 10
52.0671061067749
 20
-54.28988171385809
 10
52.0671061067749
 20
-54.28988171385809
 10
52.0671061067749
 20
-54.28988171385809
 10
52.0671061067749
 20
-53.84029675303298
 10
52.0671061067749
 20
-53.84029675303298
 97
        0
 97
        1
330
E4
 75
     2
 76
     1
 98
        1
 10
0.0
 20
0.0
450
        0
451
        0
460
0.0
461
0.0
452
        0
462
0.0
453
        0
470

  0
ENDBLK
  5
DB
330
D8
100
AcDbEntity
  8
0
100
AcDbBlockEnd
  0
BLOCK
  5
E9
330
E7
100
AcDbEntity
  8
0
100
AcDbBlockBegin
  2
Block_4
 70
     0
 10
0.0
 20
0.0
 30
0.0
  3
Block_4
  1

  0
INSERT
  5
EC
330
E7
100
AcDbEntity
  8
レイヤー 1
100
AcDbBlockReference
  2
Block_5
 10
0.0
 20
0.0
 30
0.0
  0
ENDBLK
  5
EA
330
E7
100
AcDbEntity
  8
0
100
AcDbBlockEnd
  0
BLOCK
  5
ED
330
EB
100
AcDbEntity
  8
0
100
AcDbBlockBegin
  2
Block_5
 70
     0
 10
0.0
 20
0.0
 30
0.0
  3
Block_5
  1

  0
SPLINE
  5
EF
330
EB
100
AcDbEntity
  8
レイヤー 1
100
AcDbSpline
210
0.0
220
0.0
230
1.0
 70
     9
 71
     3
 72
    29
 73
    25
 74
     0
 42
0.0000000001
 43
0.0000000001
 40
0.0
 40
0.0
 40
0.0
 40
0.0
 40
1.0
 40
1.0
 40
1.0
 40
2.0
 40
2.0
 40
2.0
 40
3.0
 40
3.0
 40
3.0
 40
4.0
 40
4.0
 40
4.0
 40
5.0
 40
5.0
 40
5.0
 40
6.0
 40
6.0
 40
6.0
 40
7.0
 40
7.0
 40
7.0
 40
8.0
 40
8.0
 40
8.0
 40
8.0
 10
36.90971950032118
 20
-45.47422687665227
 30
0.0
 10
36.82807073732077
 20
-45.53692761448382
 30
0.0
 10
36.78741861059481
 20
-45.62081568954965
 30
0.0
 10
36.78741861059481
 20
-45.7262356113983
 30
0.0
 10
36.78741861059481
 20
-45.83475611918367
 30
0.0
 10
36.82617593480387
 20
-45.9191609585723
 30
0.0
 10
36.90351832844773
 20
-45.9792778747899
 30
0.0
 10
36.98086072209159
 20
-46.03939479100751
 30
0.0
 10
37.09110377761959
 20
-46.06936712172919
 30
0.0
 10
37.23441974980598
 20
-46.06936712172919
 30
0.0
 10
37.37274033353876
 20
-46.06936712172919
 30
0.0
 10
37.47884927448446
 20
-46.04025606487883
 30
0.0
 10
37.55291882741733
 20
-45.98168944162957
 30
0.0
 10
37.6269883803502
 20
-45.9232950731546
 30
0.0
 10
37.66402315681663
 20
-45.84061278150859
 30
0.0
 10
37.66402315681663
 20
-45.73364256669159
 30
0.0
 10
37.66402315681663
 20
-45.62494980413196
 30
0.0
 10
37.62612710647889
 20
-45.53899467177497
 30
0.0
 10
37.55050726057766
 20
-45.47560491484637
 30
0.0
 10
37.47471515990215
 20
-45.41221515791778
 30
0.0
 10
37.37274033353876
 20
-45.38052027945348
 30
0.0
 10
37.24423827193894
 20
-45.38052027945348
 30
0.0
 10
37.10264484749517
 20
-45.38052027945348
 30
0.0
 10
36.99119600854734
 20
-45.411698393595
 30
0.0
 10
36.90971950032118
 20
-45.47422687665227
 30
0.0
  0
SPLINE
  5
F0
330
EB
100
AcDbEntity
  8
レイヤー 1
100
AcDbSpline
210
0.0
220
0.0
230
1.0
 70
    11
 71
     3
 72
    68
 73
    64
 74
     0
 42
0.0000000001
 43
0.0000000001
 40
0.0
 40
0.0
 40
0.0
 40
0.0
 40
1.0
 40
1.0
 40
1.0
 40
2.0
 40
2.0
 40
2.0
 40
3.0
 40
3.0
 40
3.0
 40
4.0
 40
4.0
 40
4.0
 40
5.0
 40
5.0
 40
5.0
 40
6.0
 40
6.0
 40
6.0
 40
7.0
 40
7.0
 40
7.0
 40
8.0
 40
8.0
 40
8.0
 40
9.0
 40
9.0
 40
9.0
 40
10.0
 40
10.0
 40
10.0
 40
11.0
 40
11.0
 40
11.0
 40
12.0
 40
12.0
 40
12.0
 40
13.0
 40
13.0
 40
13.0
 40
14.0
 40
14.0
 40
14.0
 40
15.0
 40
15.0
 40
15.0
 40
16.0
 40
16.0
 40
16.0
 40
17.0
 40
17.0
 40
17.0
 40
18.0
 40
18.0
 40
18.0
 40
19.0
 40
19.0
 40
19.0
 40
20.0
 40
20.0
 40
20.0
 40
21.0
 40
21.0
 40
21.0
 40
21.0
 10
37.55171304399749
 20
-45.35950519699346
 30
0.0
 10
37.54258354096158
 20
-45.35864392312214
 30
0.0
 10
37.53310952837714
 20
-45.35829941357362
 30
0.0
 10
37.52329100624418
 20
-45.35829941357362
 30
0.0
 10
37.60717908131002
 20
-45.39619546391136
 30
0.0
 10
37.67263589552976
 20
-45.45045571780405
 30
0.0
 10
37.71966144890342
 20
-45.52125243002594
 30
0.0
 10
37.76651474750282
 20
-45.59204914224782
 30
0.0
 10
37.78994139680252
 20
-45.67180310273136
 30
0.0
 10
37.78994139680252
 20
-45.7606865662508
 30
0.0
 10
37.78994139680252
 20
-45.9007296977262
 30
0.0
 10
37.74102104091197
 20
-46.01062824370568
 30
0.0
 10
37.64300807435661
 20
-46.09038220418921
 30
0.0
 10
37.54516736257552
 20
-46.17030841944701
 30
0.0
 10
37.4097751100052
 20
-46.2102715270759
 30
0.0
 10
37.23683131664566
 20
-46.2102715270759
 30
0.0
 10
37.06078693734939
 20
-46.2102715270759
 30
0.0
 10
36.92039929632546
 20
-46.16617430486471
 30
0.0
 10
36.81584064834812
 20
-46.07815211521657
 30
0.0
 10
36.7112820003708
 20
-45.98995767079418
 30
0.0
 10
36.658916548995
 20
-45.87196315042437
 30
0.0
 10
36.658916548995
 20
-45.72365178978436
 30
0.0
 10
36.658916548995
 20
-45.55243054416744
 30
0.0
 10
36.72609591095737
 20
-45.42582328508451
 30
0.0
 10
36.86028238010785
 20
-45.34348550298704
 30
0.0
 10
36.99446884925833
 20
-45.26114772088957
 30
0.0
 10
37.19979654017922
 20
-45.21997882984083
 30
0.0
 10
37.47643770764478
 20
-45.21997882984083
 30
0.0
 10
37.60976290292395
 20
-45.21997882984083
 30
0.0
 10
37.73533663336131
 20
-45.22773029468265
 30
0.0
 10
37.85298664418259
 20
-45.24340547914054
 30
0.0
 10
37.97063665500387
 20
-45.25908066359842
 30
0.0
 10
38.07485079343268
 20
-45.28578015360911
 30
0.0
 10
38.16528454992049
 20
-45.32367620394686
 30
0.0
 10
38.25589056118256
 20
-45.36157225428461
 30
0.0
 10
38.32703178295297
 20
-45.41462672475745
 30
0.0
 10
38.37888047000598
 20
-45.48301187013966
 30
0.0
 10
38.43090141183325
 20
-45.55122476074761
 30
0.0
 10
38.45673962797262
 20
-45.63735214787885
 30
0.0
 10
38.45673962797262
 20
-45.74104952198488
 30
0.0
 10
38.45673962797262
 20
-45.99288600195664
 30
0.0
 10
38.32100286585378
 20
-46.14016383395107
 30
0.0
 10
38.04935708684183
 20
-46.18305527274244
 30
0.0
 10
38.04935708684183
 20
-46.18305527274244
 30
0.0
 10
38.04935708684183
 20
-46.04473468900965
 30
0.0
 10
38.04935708684183
 20
-46.04473468900965
 30
0.0
 10
38.14650877952587
 20
-46.02664793771209
 30
0.0
 10
38.2171332369735
 20
-45.99288600195664
 30
0.0
 10
38.26174722350748
 20
-45.9434488817433
 30
0.0
 10
38.3061889552672
 20
-45.89418401630424
 30
0.0
 10
38.32840982114707
 20
-45.8240763231794
 30
0.0
 10
38.32840982114707
 20
-45.73364256669159
 30
0.0
 10
38.32840982114707
 20
-45.64148626246115
 30
0.0
 10
38.29740396177982
 20
-45.56896700249665
 30
0.0
 10
38.23573675259384
 20
-45.51625704157232
 30
0.0
 10
38.17406954340788
 20
-45.463547080648
 30
0.0
 10
38.08725313717958
 20
-45.42530652076172
 30
0.0
 10
37.97528753390896
 20
-45.4015353619135
 30
0.0
 10
37.86332193063834
 20
-45.37759194829102
 30
0.0
 10
37.73154702832754
 20
-45.36398382112428
 30
0.0
 10
37.58013508175081
 20
-45.36071098041329
 30
0.0
 10
37.57014430484357
 20
-45.36071098041329
 30
0.0
 10
37.56084254703341
 20
-45.36036647086477
 30
0.0
 10
37.55171304399749
 20
-45.35950519699346
 30
0.0
  0
HATCH
  5
F1
330
EB
100
AcDbEntity
  8
レイヤー 1
 62
   250
420
  4078137
440
 33554687
100
AcDbHatch
 10
0.0
 20
0.0
 30
0.0
210
0.0
220
0.0
230
1.0
  2
SOLID
 70
     1
 71
     1
 91
        2
 92
        1
 93
        1
 72
     4
 94
        3
 73
     0
 74
     0
 95
       29
 96
       25
 40
0.0
 40
0.0
 40
0.0
 40
0.0
 40
1.0
 40
1.0
 40
1.0
 40
2.0
 40
2.0
 40
2.0
 40
3.0
 40
3.0
 40
3.0
 40
4.0
 40
4.0
 40
4.0
 40
5.0
 40
5.0
 40
5.0
 40
6.0
 40
6.0
 40
6.0
 40
7.0
 40
7.0
 40
7.0
 40
8.0
 40
8.0
 40
8.0
 40
8.0
 10
36.90971950032118
 20
-45.47422687665227
 10
36.82807073732077
 20
-45.53692761448382
 10
36.78741861059481
 20
-45.62081568954965
 10
36.78741861059481
 20
-45.7262356113983
 10
36.78741861059481
 20
-45.83475611918367
 10
36.82617593480387
 20
-45.9191609585723
 10
36.90351832844773
 20
-45.9792778747899
 10
36.98086072209159
 20
-46.03939479100751
 10
37.09110377761959
 20
-46.06936712172919
 10
37.23441974980598
 20
-46.06936712172919
 10
37.37274033353876
 20
-46.06936712172919
 10
37.47884927448446
 20
-46.04025606487883
 10
37.55291882741733
 20
-45.98168944162957
 10
37.6269883803502
 20
-45.9232950731546
 10
37.66402315681663
 20
-45.84061278150859
 10
37.66402315681663
 20
-45.73364256669159
 10
37.66402315681663
 20
-45.62494980413196
 10
37.62612710647889
 20
-45.53899467177497
 10
37.55050726057766
 20
-45.47560491484637
 10
37.47471515990215
 20
-45.41221515791778
 10
37.37274033353876
 20
-45.38052027945348
 10
37.24423827193894
 20
-45.38052027945348
 10
37.10264484749517
 20
-45.38052027945348
 10
36.99119600854734
 20
-45.411698393595
 10
36.90971950032118
 20
-45.47422687665227
 97
        0
 97
        1
330
EF
 92
        1
 93
        1
 72
     4
 94
        3
 73
     0
 74
     0
 95
       68
 96
       64
 40
0.0
 40
0.0
 40
0.0
 40
0.0
 40
1.0
 40
1.0
 40
1.0
 40
2.0
 40
2.0
 40
2.0
 40
3.0
 40
3.0
 40
3.0
 40
4.0
 40
4.0
 40
4.0
 40
5.0
 40
5.0
 40
5.0
 40
6.0
 40
6.0
 40
6.0
 40
7.0
 40
7.0
 40
7.0
 40
8.0
 40
8.0
 40
8.0
 40
9.0
 40
9.0
 40
9.0
 40
10.0
 40
10.0
 40
10.0
 40
11.0
 40
11.0
 40
11.0
 40
12.0
 40
12.0
 40
12.0
 40
13.0
 40
13.0
 40
13.0
 40
14.0
 40
14.0
 40
14.0
 40
15.0
 40
15.0
 40
15.0
 40
16.0
 40
16.0
 40
16.0
 40
17.0
 40
17.0
 40
17.0
 40
18.0
 40
18.0
 40
18.0
 40
19.0
 40
19.0
 40
19.0
 40
20.0
 40
20.0
 40
20.0
 40
21.0
 40
21.0
 40
21.0
 40
21.0
 10
37.55171304399749
 20
-45.35950519699346
 10
37.54258354096158
 20
-45.35864392312214
 10
37.53310952837714
 20
-45.35829941357362
 10
37.52329100624418
 20
-45.35829941357362
 10
37.60717908131002
 20
-45.39619546391136
 10
37.67263589552976
 20
-45.45045571780405
 10
37.71966144890342
 20
-45.52125243002594
 10
37.76651474750282
 20
-45.59204914224782
 10
37.78994139680252
 20
-45.67180310273136
 10
37.78994139680252
 20
-45.7606865662508
 10
37.78994139680252
 20
-45.9007296977262
 10
37.74102104091197
 20
-46.01062824370568
 10
37.64300807435661
 20
-46.09038220418921
 10
37.54516736257552
 20
-46.17030841944701
 10
37.4097751100052
 20
-46.2102715270759
 10
37.23683131664566
 20
-46.2102715270759
 10
37.06078693734939
 20
-46.2102715270759
 10
36.92039929632546
 20
-46.16617430486471
 10
36.81584064834812
 20
-46.07815211521657
 10
36.7112820003708
 20
-45.98995767079418
 10
36.658916548995
 20
-45.87196315042437
 10
36.658916548995
 20
-45.72365178978436
 10
36.658916548995
 20
-45.55243054416744
 10
36.72609591095737
 20
-45.42582328508451
 10
36.86028238010785
 20
-45.34348550298704
 10
36.99446884925833
 20
-45.26114772088957
 10
37.19979654017922
 20
-45.21997882984083
 10
37.47643770764478
 20
-45.21997882984083
 10
37.60976290292395
 20
-45.21997882984083
 10
37.73533663336131
 20
-45.22773029468265
 10
37.85298664418259
 20
-45.24340547914054
 10
37.97063665500387
 20
-45.25908066359842
 10
38.07485079343268
 20
-45.28578015360911
 10
38.16528454992049
 20
-45.32367620394686
 10
38.25589056118256
 20
-45.36157225428461
 10
38.32703178295297
 20
-45.41462672475745
 10
38.37888047000598
 20
-45.48301187013966
 10
38.43090141183325
 20
-45.55122476074761
 10
38.45673962797262
 20
-45.63735214787885
 10
38.45673962797262
 20
-45.74104952198488
 10
38.45673962797262
 20
-45.99288600195664
 10
38.32100286585378
 20
-46.14016383395107
 10
38.04935708684183
 20
-46.18305527274244
 10
38.04935708684183
 20
-46.18305527274244
 10
38.04935708684183
 20
-46.04473468900965
 10
38.04935708684183
 20
-46.04473468900965
 10
38.14650877952587
 20
-46.02664793771209
 10
38.2171332369735
 20
-45.99288600195664
 10
38.26174722350748
 20
-45.9434488817433
 10
38.3061889552672
 20
-45.89418401630424
 10
38.32840982114707
 20
-45.8240763231794
 10
38.32840982114707
 20
-45.73364256669159
 10
38.32840982114707
 20
-45.64148626246115
 10
38.29740396177982
 20
-45.56896700249665
 10
38.23573675259384
 20
-45.51625704157232
 10
38.17406954340788
 20
-45.463547080648
 10
38.08725313717958
 20
-45.42530652076172
 10
37.97528753390896
 20
-45.4015353619135
 10
37.86332193063834
 20
-45.37759194829102
 10
37.73154702832754
 20
-45.36398382112428
 10
37.58013508175081
 20
-45.36071098041329
 10
37.57014430484357
 20
-45.36071098041329
 10
37.56084254703341
 20
-45.36036647086477
 10
37.55171304399749
 20
-45.35950519699346
 97
        0
 97
        1
330
F0
 75
     2
 76
     1
 98
        1
 10
0.0
 20
0.0
450
        0
451
        0
460
0.0
461
0.0
452
        0
462
0.0
453
        0
470

  0
SPLINE
  5
F2
330
EB
100
AcDbEntity
  8
レイヤー 1
100
AcDbSpline
210
0.0
220
0.0
230
1.0
 70
    11
 71
     3
 72
    17
 73
    13
 74
     0
 42
0.0000000001
 43
0.0000000001
 40
0.0
 40
0.0
 40
0.0
 40
0.0
 40
1.0
 40
1.0
 40
1.0
 40
2.0
 40
2.0
 40
2.0
 40
3.0
 40
3.0
 40
3.0
 40
4.0
 40
4.0
 40
4.0
 40
4.0
 10
38.14564750565457
 20
-44.92352836333509
 30
0.0
 10
38.14564750565457
 20
-44.92352836333509
 30
0.0
 10
38.14564750565457
 20
-44.76057534688277
 30
0.0
 10
38.14564750565457
 20
-44.76057534688277
 30
0.0
 10
38.14564750565457
 20
-44.76057534688277
 30
0.0
 10
38.4122978962129
 20
-44.76057534688277
 30
0.0
 10
38.4122978962129
 20
-44.76057534688277
 30
0.0
 10
38.4122978962129
 20
-44.76057534688277
 30
0.0
 10
38.4122978962129
 20
-44.92352836333509
 30
0.0
 10
38.4122978962129
 20
-44.92352836333509
 30
0.0
 10
38.4122978962129
 20
-44.92352836333509
 30
0.0
 10
38.14564750565457
 20
-44.92352836333509
 30
0.0
 10
38.14564750565457
 20
-44.92352836333509
 30
0.0
  0
HATCH
  5
F3
330
EB
100
AcDbEntity
  8
レイヤー 1
 62
   250
420
  4078137
440
 33554687
100
AcDbHatch
 10
0.0
 20
0.0
 30
0.0
210
0.0
220
0.0
230
1.0
  2
SOLID
 70
     1
 71
     1
 91
        1
 92
        1
 93
        1
 72
     4
 94
        3
 73
     0
 74
     0
 95
       17
 96
       13
 40
0.0
 40
0.0
 40
0.0
 40
0.0
 40
1.0
 40
1.0
 40
1.0
 40
2.0
 40
2.0
 40
2.0
 40
3.0
 40
3.0
 40
3.0
 40
4.0
 40
4.0
 40
4.0
 40
4.0
 10
38.14564750565457
 20
-44.92352836333509
 10
38.14564750565457
 20
-44.92352836333509
 10
38.14564750565457
 20
-44.76057534688277
 10
38.14564750565457
 20
-44.76057534688277
 10
38.14564750565457
 20
-44.76057534688277
 10
38.4122978962129
 20
-44.76057534688277
 10
38.4122978962129
 20
-44.76057534688277
 10
38.4122978962129
 20
-44.76057534688277
 10
38.4122978962129
 20
-44.92352836333509
 10
38.4122978962129
 20
-44.92352836333509
 10
38.4122978962129
 20
-44.92352836333509
 10
38.14564750565457
 20
-44.92352836333509
 10
38.14564750565457
 20
-44.92352836333509
 97
        0
 97
        1
330
F2
 75
     2
 76
     1
 98
        1
 10
0.0
 20
0.0
450
        0
451
        0
460
0.0
461
0.0
452
        0
462
0.0
453
        0
470

  0
SPLINE
  5
F4
330
EB
100
AcDbEntity
  8
レイヤー 1
100
AcDbSpline
210
0.0
220
0.0
230
1.0
 70
     9
 71
     3
 72
    29
 73
    25
 74
     0
 42
0.0000000001
 43
0.0000000001
 40
0.0
 40
0.0
 40
0.0
 40
0.0
 40
1.0
 40
1.0
 40
1.0
 40
2.0
 40
2.0
 40
2.0
 40
3.0
 40
3.0
 40
3.0
 40
4.0
 40
4.0
 40
4.0
 40
5.0
 40
5.0
 40
5.0
 40
6.0
 40
6.0
 40
6.0
 40
7.0
 40
7.0
 40
7.0
 40
8.0
 40
8.0
 40
8.0
 40
8.0
 10
37.96788057861567
 20
-44.35319280575198
 30
0.0
 10
38.08466931556564
 20
-44.35319280575198
 30
0.0
 10
38.17493081727918
 20
-44.32149792728767
 30
0.0
 10
38.23814831943352
 20
-44.25810817035908
 30
0.0
 10
38.30153807636211
 20
-44.19471841343049
 30
0.0
 10
38.33323295482641
 20
-44.10531818558825
 30
0.0
 10
38.33323295482641
 20
-43.99007974160665
 30
0.0
 10
38.33323295482641
 20
-43.87329100465668
 30
0.0
 10
38.30153807636211
 20
-43.78268499339461
 30
0.0
 10
38.23814831943352
 20
-43.7184339625947
 30
0.0
 10
38.17493081727918
 20
-43.65435518656904
 30
0.0
 10
38.08466931556564
 20
-43.62214354378196
 30
0.0
 10
37.96788057861567
 20
-43.62214354378196
 30
0.0
 10
37.85091958689144
 20
-43.62214354378196
 30
0.0
 10
37.7615193590492
 20
-43.65349391269774
 30
0.0
 10
37.69985214986323
 20
-43.71602239575502
 30
0.0
 10
37.63818494067726
 20
-43.77855087881231
 30
0.0
 10
37.60717908131002
 20
-43.86829561620306
 30
0.0
 10
37.60717908131002
 20
-43.9852566079273
 30
0.0
 10
37.60717908131002
 20
-44.10376789261989
 30
0.0
 10
37.63818494067726
 20
-44.19471841343049
 30
0.0
 10
37.69985214986323
 20
-44.25810817035908
 30
0.0
 10
37.7615193590492
 20
-44.32149792728767
 30
0.0
 10
37.85091958689144
 20
-44.35319280575198
 30
0.0
 10
37.96788057861567
 20
-44.35319280575198
 30
0.0
  0
SPLINE
  5
F5
330
EB
100
AcDbEntity
  8
レイヤー 1
100
AcDbSpline
210
0.0
220
0.0
230
1.0
 70
    11
 71
     3
 72
    29
 73
    25
 74
     0
 42
0.0000000001
 43
0.0000000001
 40
0.0
 40
0.0
 40
0.0
 40
0.0
 40
1.0
 40
1.0
 40
1.0
 40
2.0
 40
2.0
 40
2.0
 40
3.0
 40
3.0
 40
3.0
 40
4.0
 40
4.0
 40
4.0
 40
5.0
 40
5.0
 40
5.0
 40
6.0
 40
6.0
 40
6.0
 40
7.0
 40
7.0
 40
7.0
 40
8.0
 40
8.0
 40
8.0
 40
8.0
 10
37.13313394253964
 20
-44.31856959612522
 30
0.0
 10
37.24337699806763
 20
-44.31856959612522
 30
0.0
 10
37.32898762087609
 20
-44.28980304882339
 30
0.0
 10
37.38996581096501
 20
-44.23209769944544
 30
0.0
 10
37.45094400105394
 20
-44.17456460484177
 30
0.0
 10
37.48126084132413
 20
-44.09377711571266
 30
0.0
 10
37.48126084132413
 20
-43.99007974160665
 30
0.0
 10
37.48126084132413
 20
-43.88310952678963
 30
0.0
 10
37.45094400105394
 20
-43.80077174469216
 30
0.0
 10
37.38996581096501
 20
-43.74323865008849
 30
0.0
 10
37.32898762087609
 20
-43.68553330071056
 30
0.0
 10
37.24337699806763
 20
-43.65676675340872
 30
0.0
 10
37.13313394253964
 20
-43.65676675340872
 30
0.0
 10
37.02289088701164
 20
-43.65676675340872
 30
0.0
 10
36.93676349988039
 20
-43.68553330071056
 30
0.0
 10
36.87509629069442
 20
-43.74323865008849
 30
0.0
 10
36.81325682673419
 20
-43.80077174469216
 30
0.0
 10
36.78242322214121
 20
-43.88155923382128
 30
0.0
 10
36.78242322214121
 20
-43.9852566079273
 30
0.0
 10
36.78242322214121
 20
-44.09050427500168
 30
0.0
 10
36.81325682673419
 20
-44.17249754755062
 30
0.0
 10
36.87509629069442
 20
-44.23089191602561
 30
0.0
 10
36.93676349988039
 20
-44.28928628450059
 30
0.0
 10
37.02289088701164
 20
-44.31856959612522
 30
0.0
 10
37.13313394253964
 20
-44.31856959612522
 30
0.0
  0
SPLINE
  5
F6
330
EB
100
AcDbEntity
  8
レイヤー 1
100
AcDbSpline
210
0.0
220
0.0
230
1.0
 70
     9
 71
     3
 72
    53
 73
    49
 74
     0
 42
0.0000000001
 43
0.0000000001
 40
0.0
 40
0.0
 40
0.0
 40
0.0
 40
1.0
 40
1.0
 40
1.0
 40
2.0
 40
2.0
 40
2.0
 40
3.0
 40
3.0
 40
3.0
 40
4.0
 40
4.0
 40
4.0
 40
5.0
 40
5.0
 40
5.0
 40
6.0
 40
6.0
 40
6.0
 40
7.0
 40
7.0
 40
7.0
 40
8.0
 40
8.0
 40
8.0
 40
9.0
 40
9.0
 40
9.0
 40
10.0
 40
10.0
 40
10.0
 40
11.0
 40
11.0
 40
11.0
 40
12.0
 40
12.0
 40
12.0
 40
13.0
 40
13.0
 40
13.0
 40
14.0
 40
14.0
 40
14.0
 40
15.0
 40
15.0
 40
15.0
 40
16.0
 40
16.0
 40
16.0
 40
16.0
 10
37.97270371229502
 20
-44.49892034477804
 30
0.0
 10
37.87072888593163
 20
-44.49892034477804
 30
0.0
 10
37.77977836512103
 20
-44.47170409044457
 30
0.0
 10
37.69985214986323
 20
-44.41727158177762
 30
0.0
 10
37.6200981893797
 20
-44.36301132788494
 30
0.0
 10
37.56687146413259
 20
-44.28808050108075
 30
0.0
 10
37.54051648367043
 20
-44.19265135613933
 30
0.0
 10
37.5043429810753
 20
-44.2782619789478
 30
0.0
 10
37.45042723673114
 20
-44.34406330271607
 30
0.0
 10
37.37876925063795
 20
-44.39022758221841
 30
0.0
 10
37.30728351931901
 20
-44.4362196069465
 30
0.0
 10
37.22201740605908
 20
-44.45930174669768
 30
0.0
 10
37.12331542040667
 20
-44.45930174669768
 30
0.0
 10
36.98172199596291
 20
-44.45930174669768
 30
0.0
 10
36.86889511882097
 20
-44.41606579835779
 30
0.0
 10
36.78500704375514
 20
-44.32976615645228
 30
0.0
 10
36.70094671391505
 20
-44.2432942597725
 30
0.0
 10
36.658916548995
 20
-44.12840032533942
 30
0.0
 10
36.658916548995
 20
-43.9852566079273
 30
0.0
 10
36.658916548995
 20
-43.8419406357409
 30
0.0
 10
36.70094671391505
 20
-43.72790797517914
 30
0.0
 10
36.78500704375514
 20
-43.64315862624199
 30
0.0
 10
36.86889511882097
 20
-43.55840927730485
 30
0.0
 10
36.98172199596291
 20
-43.51603460283627
 30
0.0
 10
37.12331542040667
 20
-43.51603460283627
 30
0.0
 10
37.2237399538017
 20
-43.51603460283627
 30
0.0
 10
37.30935057661016
 20
-43.53911674258744
 30
0.0
 10
37.38014728883205
 20
-43.58510876731553
 30
0.0
 10
37.45094400105394
 20
-43.63127304681788
 30
0.0
 10
37.5043429810753
 20
-43.69707437058615
 30
0.0
 10
37.54051648367043
 20
-43.78268499339461
 30
0.0
 10
37.56859401187521
 20
-43.68725584845319
 30
0.0
 10
37.62164848234807
 20
-43.612325021649
 30
0.0
 10
37.69985214986323
 20
-43.55806476775632
 30
0.0
 10
37.7780558173784
 20
-43.50363225908937
 30
0.0
 10
37.86900633818901
 20
-43.47641600475589
 30
0.0
 10
37.97270371229502
 20
-43.47641600475589
 30
0.0
 10
38.12428791364601
 20
-43.47641600475589
 30
0.0
 10
38.24279919833861
 20
-43.52171901038693
 30
0.0
 10
38.32840982114707
 20
-43.612325021649
 30
0.0
 10
38.41384818918126
 20
-43.70293103291107
 30
0.0
 10
38.45673962797262
 20
-43.82884927289695
 30
0.0
 10
38.45673962797262
 20
-43.99007974160665
 30
0.0
 10
38.45673962797262
 20
-44.14975991734798
 30
0.0
 10
38.41436495350405
 20
-44.27447237391402
 30
0.0
 10
38.3296156045669
 20
-44.36421711130478
 30
0.0
 10
38.24486625562976
 20
-44.45396184869554
 30
0.0
 10
38.12583820661437
 20
-44.49892034477804
 30
0.0
 10
37.97270371229502
 20
-44.49892034477804
 30
0.0
  0
HATCH
  5
F7
330
EB
100
AcDbEntity
  8
レイヤー 1
 62
   250
420
  4078137
440
 33554687
100
AcDbHatch
 10
0.0
 20
0.0
 30
0.0
210
0.0
220
0.0
230
1.0
  2
SOLID
 70
     1
 71
     1
 91
        3
 92
        1
 93
        1
 72
     4
 94
        3
 73
     0
 74
     0
 95
       29
 96
       25
 40
0.0
 40
0.0
 40
0.0
 40
0.0
 40
1.0
 40
1.0
 40
1.0
 40
2.0
 40
2.0
 40
2.0
 40
3.0
 40
3.0
 40
3.0
 40
4.0
 40
4.0
 40
4.0
 40
5.0
 40
5.0
 40
5.0
 40
6.0
 40
6.0
 40
6.0
 40
7.0
 40
7.0
 40
7.0
 40
8.0
 40
8.0
 40
8.0
 40
8.0
 10
37.96788057861567
 20
-44.35319280575198
 10
38.08466931556564
 20
-44.35319280575198
 10
38.17493081727918
 20
-44.32149792728767
 10
38.23814831943352
 20
-44.25810817035908
 10
38.30153807636211
 20
-44.19471841343049
 10
38.33323295482641
 20
-44.10531818558825
 10
38.33323295482641
 20
-43.99007974160665
 10
38.33323295482641
 20
-43.87329100465668
 10
38.30153807636211
 20
-43.78268499339461
 10
38.23814831943352
 20
-43.7184339625947
 10
38.17493081727918
 20
-43.65435518656904
 10
38.08466931556564
 20
-43.62214354378196
 10
37.96788057861567
 20
-43.62214354378196
 10
37.85091958689144
 20
-43.62214354378196
 10
37.7615193590492
 20
-43.65349391269774
 10
37.69985214986323
 20
-43.71602239575502
 10
37.63818494067726
 20
-43.77855087881231
 10
37.60717908131002
 20
-43.86829561620306
 10
37.60717908131002
 20
-43.9852566079273
 10
37.60717908131002
 20
-44.10376789261989
 10
37.63818494067726
 20
-44.19471841343049
 10
37.69985214986323
 20
-44.25810817035908
 10
37.7615193590492
 20
-44.32149792728767
 10
37.85091958689144
 20
-44.35319280575198
 10
37.96788057861567
 20
-44.35319280575198
 97
        0
 97
        1
330
F4
 92
        1
 93
        1
 72
     4
 94
        3
 73
     0
 74
     0
 95
       29
 96
       25
 40
0.0
 40
0.0
 40
0.0
 40
0.0
 40
1.0
 40
1.0
 40
1.0
 40
2.0
 40
2.0
 40
2.0
 40
3.0
 40
3.0
 40
3.0
 40
4.0
 40
4.0
 40
4.0
 40
5.0
 40
5.0
 40
5.0
 40
6.0
 40
6.0
 40
6.0
 40
7.0
 40
7.0
 40
7.0
 40
8.0
 40
8.0
 40
8.0
 40
8.0
 10
37.13313394253964
 20
-44.31856959612522
 10
37.24337699806763
 20
-44.31856959612522
 10
37.32898762087609
 20
-44.28980304882339
 10
37.38996581096501
 20
-44.23209769944544
 10
37.45094400105394
 20
-44.17456460484177
 10
37.48126084132413
 20
-44.09377711571266
 10
37.48126084132413
 20
-43.99007974160665
 10
37.48126084132413
 20
-43.88310952678963
 10
37.45094400105394
 20
-43.80077174469216
 10
37.38996581096501
 20
-43.74323865008849
 10
37.32898762087609
 20
-43.68553330071056
 10
37.24337699806763
 20
-43.65676675340872
 10
37.13313394253964
 20
-43.65676675340872
 10
37.02289088701164
 20
-43.65676675340872
 10
36.93676349988039
 20
-43.68553330071056
 10
36.87509629069442
 20
-43.74323865008849
 10
36.81325682673419
 20
-43.80077174469216
 10
36.78242322214121
 20
-43.88155923382128
 10
36.78242322214121
 20
-43.9852566079273
 10
36.78242322214121
 20
-44.09050427500168
 10
36.81325682673419
 20
-44.17249754755062
 10
36.87509629069442
 20
-44.23089191602561
 10
36.93676349988039
 20
-44.28928628450059
 10
37.02289088701164
 20
-44.31856959612522
 10
37.13313394253964
 20
-44.31856959612522
 97
        0
 97
        1
330
F5
 92
        1
 93
        1
 72
     4
 94
        3
 73
     0
 74
     0
 95
       53
 96
       49
 40
0.0
 40
0.0
 40
0.0
 40
0.0
 40
1.0
 40
1.0
 40
1.0
 40
2.0
 40
2.0
 40
2.0
 40
3.0
 40
3.0
 40
3.0
 40
4.0
 40
4.0
 40
4.0
 40
5.0
 40
5.0
 40
5.0
 40
6.0
 40
6.0
 40
6.0
 40
7.0
 40
7.0
 40
7.0
 40
8.0
 40
8.0
 40
8.0
 40
9.0
 40
9.0
 40
9.0
 40
10.0
 40
10.0
 40
10.0
 40
11.0
 40
11.0
 40
11.0
 40
12.0
 40
12.0
 40
12.0
 40
13.0
 40
13.0
 40
13.0
 40
14.0
 40
14.0
 40
14.0
 40
15.0
 40
15.0
 40
15.0
 40
16.0
 40
16.0
 40
16.0
 40
16.0
 10
37.97270371229502
 20
-44.49892034477804
 10
37.87072888593163
 20
-44.49892034477804
 10
37.77977836512103
 20
-44.47170409044457
 10
37.69985214986323
 20
-44.41727158177762
 10
37.6200981893797
 20
-44.36301132788494
 10
37.56687146413259
 20
-44.28808050108075
 10
37.54051648367043
 20
-44.19265135613933
 10
37.5043429810753
 20
-44.2782619789478
 10
37.45042723673114
 20
-44.34406330271607
 10
37.37876925063795
 20
-44.39022758221841
 10
37.30728351931901
 20
-44.4362196069465
 10
37.22201740605908
 20
-44.45930174669768
 10
37.12331542040667
 20
-44.45930174669768
 10
36.98172199596291
 20
-44.45930174669768
 10
36.86889511882097
 20
-44.41606579835779
 10
36.78500704375514
 20
-44.32976615645228
 10
36.70094671391505
 20
-44.2432942597725
 10
36.658916548995
 20
-44.12840032533942
 10
36.658916548995
 20
-43.9852566079273
 10
36.658916548995
 20
-43.8419406357409
 10
36.70094671391505
 20
-43.72790797517914
 10
36.78500704375514
 20
-43.64315862624199
 10
36.86889511882097
 20
-43.55840927730485
 10
36.98172199596291
 20
-43.51603460283627
 10
37.12331542040667
 20
-43.51603460283627
 10
37.2237399538017
 20
-43.51603460283627
 10
37.30935057661016
 20
-43.53911674258744
 10
37.38014728883205
 20
-43.58510876731553
 10
37.45094400105394
 20
-43.63127304681788
 10
37.5043429810753
 20
-43.69707437058615
 10
37.54051648367043
 20
-43.78268499339461
 10
37.56859401187521
 20
-43.68725584845319
 10
37.62164848234807
 20
-43.612325021649
 10
37.69985214986323
 20
-43.55806476775632
 10
37.7780558173784
 20
-43.50363225908937
 10
37.86900633818901
 20
-43.47641600475589
 10
37.97270371229502
 20
-43.47641600475589
 10
38.12428791364601
 20
-43.47641600475589
 10
38.24279919833861
 20
-43.52171901038693
 10
38.32840982114707
 20
-43.612325021649
 10
38.41384818918126
 20
-43.70293103291107
 10
38.45673962797262
 20
-43.82884927289695
 10
38.45673962797262
 20
-43.99007974160665
 10
38.45673962797262
 20
-44.14975991734798
 10
38.41436495350405
 20
-44.27447237391402
 10
38.3296156045669
 20
-44.36421711130478
 10
38.24486625562976
 20
-44.45396184869554
 10
38.12583820661437
 20
-44.49892034477804
 10
37.97270371229502
 20
-44.49892034477804
 97
        0
 97
        1
330
F6
 75
     2
 76
     1
 98
        1
 10
0.0
 20
0.0
450
        0
451
        0
460
0.0
461
0.0
452
        0
462
0.0
453
        0
470

  0
ENDBLK
  5
EE
330
EB
100
AcDbEntity
  8
0
100
AcDbBlockEnd
  0
BLOCK
  5
FA
330
F8
100
AcDbEntity
  8
0
100
AcDbBlockBegin
  2
Block_6
 70
     0
 10
0.0
 20
0.0
 30
0.0
  3
Block_6
  1

  0
LWPOLYLINE
  5
FC
330
F8
100
AcDbEntity
  8
レイヤー 1
 62
   250
420
  4078137
370
    18
100
AcDbPolyline
 90
        4
 70
     1
 43
0.0
 10
47.18705958574957
 20
-44.06151579555605
 10
47.18705958574957
 20
-43.45590796985972
 10
53.09537876933045
 20
-43.45590796985972
 10
53.09537876933045
 20
-44.06151579555605
  0
LWPOLYLINE
  5
FD
330
F8
100
AcDbEntity
  8
レイヤー 1
 62
   250
420
  4078137
370
    18
100
AcDbPolyline
 90
        4
 70
     1
 43
0.0
 10
48.62452421470351
 20
-43.45590796985972
 10
48.62452421470351
 20
-42.85030014416339
 10
51.65791414037394
 20
-42.85030014416339
 10
51.65791414037394
 20
-43.45590796985972
  0
LWPOLYLINE
  5
FE
330
F8
100
AcDbEntity
  8
レイヤー 1
 62
   250
420
  4078137
370
    18
100
AcDbPolyline
 90
        4
 70
     1
 43
0.0
 10
46.08349422099901
 20
-42.05799680536929
 10
46.08349422099901
 20
-44.2482113086535
 10
54.10024734498955
 20
-44.2482113086535
 10
54.10024734498955
 20
-42.05799680536929
  0
LWPOLYLINE
  5
FF
330
F8
100
AcDbEntity
  8
レイヤー 1
 62
   250
420
  4078137
370
    18
100
AcDbPolyline
 90
        4
 70
     1
 43
0.0
 10
45.13273021444557
 20
-41.09032761467496
 10
45.13273021444557
 20
-45.21588049934783
 10
55.13273021194588
 20
-45.21588049934783
 10
55.13273021194588
 20
-41.09032761467496
  0
ENDBLK
  5
FB
330
F8
100
AcDbEntity
  8
0
100
AcDbBlockEnd
  0
ENDSEC
  0
SECTION
  2
ENTITIES
  0
INSERT
  5
7A
330
70
100
AcDbEntity
  8
レイヤー 1
100
AcDbBlockReference
  2
Block_0
 10
0.0
 20
0.0
 30
0.0
  0
LWPOLYLINE
  5
D1
330
70
100
AcDbEntity
  8
レイヤー 1
 62
   250
420
  4078137
370
    18
100
AcDbPolyline
 90
       14
 70
     1
 43
0.0
 10
56.83474936875851
 20
-46.70580578144921
 10
56.83474936875851
 20
-41.10616411618259
 10
43.42989971074535
 20
-41.10616411618259
 10
43.42989971074535
 20
-46.70580578144921
 10
44.06930941665423
 20
-46.70580578144921
 10
43.63246470557685
 20
-49.10497689196084
 10
42.13249063609883
 20
-49.10497689196084
 10
41.92988863790207
 20
-39.80667189428515
 10
58.32855155287066
 20
-39.80667189428515
 10
58.33476044160178
 20
-39.80667189428515
 10
58.13148989123209
 20
-49.10497689196084
 10
56.63218437392637
 20
-49.10497689196084
 10
56.18983632965605
 20
-46.70580578144921
 10
56.18916605189538
 20
-46.70580578144921
  0
LWPOLYLINE
  5
D2
330
70
100
AcDbEntity
  8
レイヤー 1
 62
   250
420
  4078137
370
    18
100
AcDbPolyline
 90
       22
 70
     1
 43
0.0
 10
55.13150302332305
 20
-49.20555383638049
 10
55.13150302332305
 20
-46.70580578144921
 10
55.13287885662128
 20
-46.70580578144921
 10
56.83062396575723
 20
-46.70580578144921
 10
56.83062396575723
 20
-41.70627439381043
 10
55.33131841057651
 20
-41.70627439381043
 10
55.03092608144454
 20
-42.00669994929086
 10
55.33269218485695
 20
-42.30433856032801
 10
55.33269218485695
 20
-45.20374855960271
 10
55.33131841057651
 20
-45.20374855960271
 10
53.63082167271973
 20
-45.20374855960271
 10
53.63082167271973
 20
-47.70624828119975
 10
46.63178129572457
 20
-47.70624828119975
 10
46.63178129572457
 20
-45.20374855960271
 10
44.93403828348205
 20
-45.20374855960271
 10
44.93403828348205
 20
-42.30433856032801
 10
45.23442855359623
 20
-42.00669994929086
 10
44.93403828348205
 20
-41.70627439381043
 10
43.43335693287873
 20
-41.70627439381043
 10
43.43335693287873
 20
-46.70580578144921
 10
45.13385161171772
 20
-46.70580578144921
 10
45.13385161171772
 20
-49.20555383638049
  0
LWPOLYLINE
  5
D3
330
70
100
AcDbEntity
  8
レイヤー 1
 62
   250
420
  4078137
370
     9
100
AcDbPolyline
 90
        4
 70
     0
 43
0.0
 10
58.33476044160178
 20
-49.96691883618945
 10
58.33476044160178
 20
-51.9664632801339
 10
41.92988863790207
 20
-51.9664632801339
 10
41.92988863790207
 20
-49.96691883618945
  0
INSERT
  5
D5
330
70
100
AcDbEntity
  8
レイヤー 1
100
AcDbBlockReference
  2
Block_2
 10
0.0
 20
0.0
 30
0.0
  0
LWPOLYLINE
  5
E6
330
70
100
AcDbEntity
  8
レイヤー 1
 62
   250
420
  4078137
370
     9
100
AcDbPolyline
 90
        4
 70
     0
 43
0.0
 10
40.98387977314787
 20
-49.20555383638049
 10
38.98366510195538
 20
-49.20555383638049
 10
38.98366510195538
 20
-39.8996641164842
 10
40.98387977314787
 20
-39.8996641164842
  0
INSERT
  5
E8
330
70
100
AcDbEntity
  8
レイヤー 1
100
AcDbBlockReference
  2
Block_4
 10
0.0
 20
0.0
 30
0.0
  0
INSERT
  5
F9
330
70
100
AcDbEntity
  8
レイヤー 1
100
AcDbBlockReference
  2
Block_6
 10
0.0
 20
0.0
 30
0.0
  0
ENDSEC
  0
SECTION
  2
OBJECTS
  0
DICTIONARY
  5
C
330
0
100
AcDbDictionary
281
     1
  3
ACAD_COLOR
350
63
  3
ACAD_DETAILVIEWSTYLE
350
6A
  3
ACAD_GROUP
350
D
  3
ACAD_LAYOUT
350
62
  3
ACAD_MATERIAL
350
10
  3
ACAD_MLEADERSTYLE
350
66
  3
ACAD_MLINESTYLE
350
5F
  3
ACAD_PLOTSETTINGS
350
61
  3
ACAD_PLOTSTYLENAME
350
E
  3
ACAD_SCALELIST
350
42
  3
ACAD_SECTIONVIEWSTYLE
350
68
  3
ACAD_TABLESTYLE
350
64
  3
ACAD_VISUALSTYLE
350
29
  3
ACDB_RECOMPOSE_DATA
350
108
  3
AcDbVariableDictionary
350
100
  0
DICTIONARY
  5
63
102
{ACAD_REACTORS
330
C
102
}
330
C
100
AcDbDictionary
281
     1
  0
DICTIONARY
  5
6A
102
{ACAD_REACTORS
330
C
102
}
330
C
100
AcDbDictionary
281
     1
  3
Imperial24
350
6B
  0
DICTIONARY
  5
D
102
{ACAD_REACTORS
330
C
102
}
330
C
100
AcDbDictionary
281
     1
  0
DICTIONARY
  5
62
102
{ACAD_REACTORS
330
C
102
}
330
C
100
AcDbDictionary
281
     1
  3
Layout1
350
6F
  3
Layout2
350
77
  3
Model
350
73
  0
DICTIONARY
  5
10
102
{ACAD_REACTORS
330
C
102
}
330
C
100
AcDbDictionary
281
     1
  3
ByBlock
350
19
  3
ByLayer
350
11
  3
Global
350
21
  0
DICTIONARY
  5
66
102
{ACAD_REACTORS
330
C
102
}
330
C
100
AcDbDictionary
281
     1
  3
Standard
350
67
  0
DICTIONARY
  5
5F
102
{ACAD_REACTORS
330
C
102
}
330
C
100
AcDbDictionary
281
     1
  3
Standard
350
60
  0
DICTIONARY
  5
61
102
{ACAD_REACTORS
330
C
102
}
330
C
100
AcDbDictionary
281
     1
  0
ACDBDICTIONARYWDFLT
  5
E
102
{ACAD_REACTORS
330
C
102
}
330
C
100
AcDbDictionary
281
     1
  3
Normal
350
F
100
AcDbDictionaryWithDefault
340
F
  0
DICTIONARY
  5
42
102
{ACAD_REACTORS
330
C
102
}
330
C
100
AcDbDictionary
281
     1
  3
A0
350
43
  3
A1
350
44
  3
A2
350
45
  3
A3
350
46
  3
A4
350
47
  3
A5
350
48
  3
A6
350
49
  3
A7
350
4A
  3
A8
350
4B
  3
A9
350
4C
  3
B0
350
4D
  3
B1
350
4E
  3
B2
350
4F
  3
B3
350
50
  3
B4
350
51
  3
B5
350
52
  3
B6
350
53
  0
DICTIONARY
  5
68
102
{ACAD_REACTORS
330
C
102
}
330
C
100
AcDbDictionary
281
     1
  3
Imperial24
350
69
  0
DICTIONARY
  5
64
102
{ACAD_REACTORS
330
C
102
}
330
C
100
AcDbDictionary
281
     1
  3
Standard
350
65
  0
DICTIONARY
  5
29
102
{ACAD_REACTORS
330
C
102
}
330
C
100
AcDbDictionary
281
     1
  3
2dWireframe
350
2F
  3
Basic
350
2E
  3
Brighten
350
35
  3
ColorChange
350
39
  3
Conceptual
350
32
  3
Dim
350
34
  3
EdgeColorOff
350
41
  3
Facepattern
350
38
  3
Flat
350
2A
  3
FlatWithEdges
350
2B
  3
Gouraud
350
2C
  3
GouraudWithEdges
350
2D
  3
Hidden
350
31
  3
JitterOff
350
3F
  3
Linepattern
350
37
  3
OverhangOff
350
40
  3
Realistic
350
33
  3
Shaded
350
3E
  3
Shaded with edges
350
3D
  3
Shades of Gray
350
3A
  3
Sketchy
350
3B
  3
Thicken
350
36
  3
Wireframe
350
30
  3
X-Ray
350
3C
  0
XRECORD
  5
108
102
{ACAD_REACTORS
330
C
102
}
330
C
100
AcDbXrecord
280
     1
 90
        1
330
65
  0
DICTIONARY
  5
100
102
{ACAD_REACTORS
330
C
102
}
330
C
100
AcDbDictionary
281
     1
  3
CANNOSCALE
350
105
  3
CMLEADERSTYLE
350
102
  3
CTABLESTYLE
350
101
  3
CVIEWDETAILSTYLE
350
103
  3
CVIEWSECTIONSTYLE
350
104
  0
ACDBDETAILVIEWSTYLE
  5
6B
102
{ACAD_REACTORS
330
6A
102
}
330
6A
100
AcDbModelDocViewStyle
 70
     0
  3
Imperial24
290
     1
300
Imperial24
 90
        0
100
AcDbDetailViewStyle
 70
     0
 71
     0
 90
        3
 71
     1
340
55
 62
   256
 40
0.24
340
0
 62
   256
 40
0.24
300

 40
0.36
280
     3
 71
     2
340
5D
 90
       25
 62
   256
 71
     3
340
55
 62
   256
 40
0.24
 90
        1
 40
0.75
 90
        1
300
%<\AcVar ViewType \f "%tc1">% %<\AcVar ViewDetailId>%\PSCALE %<\AcVar ViewScale \f "%sn">%
 71
     4
340
5D
 90
       25
 62
   256
340
5D
 90
       25
 62
   256
280
     0
  0
LAYOUT
  5
6F
102
{ACAD_REACTORS
330
62
102
}
330
62
100
AcDbPlotSettings
  1

  2

  4

  6

 40
0.0
 41
0.0
 42
0.0
 43
0.0
 44
0.0
 45
0.0
 46
0.0
 47
0.0
 48
0.0
 49
0.0
140
0.0
141
0.0
142
1.0
143
1.0
 70
   688
 72
     0
 73
     0
 74
     5
  7

 75
    16
147
1.0
 76
     0
 77
     2
 78
   300
148
0.0
149
0.0
100
AcDbLayout
  1
Layout1
 70
     1
 71
     1
 10
0.0
 20
0.0
 11
12.0
 21
9.0
 12
0.0
 22
0.0
 32
0.0
 14
0.0
 24
0.0
 34
0.0
 15
0.0
 25
0.0
 35
0.0
146
0.0
 13
0.0
 23
0.0
 33
0.0
 16
1.0
 26
0.0
 36
0.0
 17
0.0
 27
1.0
 37
0.0
 76
     0
330
6C
  0
LAYOUT
  5
77
102
{ACAD_REACTORS
330
62
102
}
330
62
100
AcDbPlotSettings
  1

  2

  4

  6

 40
0.0
 41
0.0
 42
0.0
 43
0.0
 44
0.0
 45
0.0
 46
0.0
 47
0.0
 48
0.0
 49
0.0
140
0.0
141
0.0
142
1.0
143
1.0
 70
   688
 72
     0
 73
     0
 74
     5
  7

 75
    16
147
1.0
 76
     0
 77
     2
 78
   300
148
0.0
149
0.0
100
AcDbLayout
  1
Layout2
 70
     1
 71
     2
 10
0.0
 20
0.0
 11
12.0
 21
9.0
 12
0.0
 22
0.0
 32
0.0
 14
0.0
 24
0.0
 34
0.0
 15
0.0
 25
0.0
 35
0.0
146
0.0
 13
0.0
 23
0.0
 33
0.0
 16
1.0
 26
0.0
 36
0.0
 17
0.0
 27
1.0
 37
0.0
 76
     0
330
74
  0
LAYOUT
  5
73
102
{ACAD_REACTORS
330
62
102
}
330
62
100
AcDbPlotSettings
  1

  2

  4

  6

 40
0.0
 41
0.0
 42
0.0
 43
0.0
 44
0.0
 45
0.0
 46
0.0
 47
0.0
 48
0.0
 49
0.0
140
0.0
141
0.0
142
1.0
143
1.0
 70
  1712
 72
     0
 73
     0
 74
     0
  7

 75
     0
147
1.0
 76
     0
 77
     2
 78
   300
148
0.0
149
0.0
100
AcDbLayout
  1
Model
 70
     1
 71
     0
 10
0.0
 20
0.0
 11
12.0
 21
9.0
 12
0.0
 22
0.0
 32
0.0
 14
0.0
 24
0.0
 34
0.0
 15
0.0
 25
0.0
 35
0.0
146
0.0
 13
0.0
 23
0.0
 33
0.0
 16
1.0
 26
0.0
 36
0.0
 17
0.0
 27
1.0
 37
0.0
 76
     0
330
70
  0
MATERIAL
  5
19
102
{ACAD_XDICTIONARY
360
1A
102
}
102
{ACAD_REACTORS
330
10
102
}
330
10
100
AcDbMaterial
  1
ByBlock
 72
     0
 43
0.0208333333333333
 43
0.0
 43
0.0
 43
0.0
 43
0.0
 43
0.0208333333333333
 43
0.0
 43
0.0
 43
0.0
 43
0.0
 43
1.0
 43
0.0
 43
0.0
 43
0.0
 43
0.0
 43
1.0
 77
     0
 47
0.0208333333333333
 47
0.0
 47
0.0
 47
0.0
 47
0.0
 47
0.0208333333333333
 47
0.0
 47
0.0
 47
0.0
 47
0.0
 47
1.0
 47
0.0
 47
0.0
 47
0.0
 47
0.0
 47
1.0
171
     0
 49
0.0208333333333333
 49
0.0
 49
0.0
 49
0.0
 49
0.0
 49
0.0208333333333333
 49
0.0
 49
0.0
 49
0.0
 49
0.0
 49
1.0
 49
0.0
 49
0.0
 49
0.0
 49
0.0
 49
1.0
175
     0
142
0.0208333333333333
142
0.0
142
0.0
142
0.0
142
0.0
142
0.0208333333333333
142
0.0
142
0.0
142
0.0
142
0.0
142
1.0
142
0.0
142
0.0
142
0.0
142
0.0
142
1.0
179
     0
144
0.0208333333333333
144
0.0
144
0.0
144
0.0
144
0.0
144
0.0208333333333333
144
0.0
144
0.0
144
0.0
144
0.0
144
1.0
144
0.0
144
0.0
144
0.0
144
0.0
144
1.0
147
0.0208333333333333
147
0.0
147
0.0
147
0.0
147
0.0
147
0.0208333333333333
147
0.0
147
0.0
147
0.0
147
0.0
147
1.0
147
0.0
147
0.0
147
0.0
147
0.0
147
1.0
  0
MATERIAL
  5
11
102
{ACAD_XDICTIONARY
360
12
102
}
102
{ACAD_REACTORS
330
10
102
}
330
10
100
AcDbMaterial
  1
ByLayer
 72
     0
 43
0.0208333333333333
 43
0.0
 43
0.0
 43
0.0
 43
0.0
 43
0.0208333333333333
 43
0.0
 43
0.0
 43
0.0
 43
0.0
 43
1.0
 43
0.0
 43
0.0
 43
0.0
 43
0.0
 43
1.0
 77
     0
 47
0.0208333333333333
 47
0.0
 47
0.0
 47
0.0
 47
0.0
 47
0.0208333333333333
 47
0.0
 47
0.0
 47
0.0
 47
0.0
 47
1.0
 47
0.0
 47
0.0
 47
0.0
 47
0.0
 47
1.0
171
     0
 49
0.0208333333333333
 49
0.0
 49
0.0
 49
0.0
 49
0.0
 49
0.0208333333333333
 49
0.0
 49
0.0
 49
0.0
 49
0.0
 49
1.0
 49
0.0
 49
0.0
 49
0.0
 49
0.0
 49
1.0
175
     0
142
0.0208333333333333
142
0.0
142
0.0
142
0.0
142
0.0
142
0.0208333333333333
142
0.0
142
0.0
142
0.0
142
0.0
142
1.0
142
0.0
142
0.0
142
0.0
142
0.0
142
1.0
179
     0
144
0.0208333333333333
144
0.0
144
0.0
144
0.0
144
0.0
144
0.0208333333333333
144
0.0
144
0.0
144
0.0
144
0.0
144
1.0
144
0.0
144
0.0
144
0.0
144
0.0
144
1.0
147
0.0208333333333333
147
0.0
147
0.0
147
0.0
147
0.0
147
0.0208333333333333
147
0.0
147
0.0
147
0.0
147
0.0
147
1.0
147
0.0
147
0.0
147
0.0
147
0.0
147
1.0
  0
MATERIAL
  5
21
102
{ACAD_XDICTIONARY
360
22
102
}
102
{ACAD_REACTORS
330
10
102
}
330
10
100
AcDbMaterial
  1
Global
 72
     0
 43
0.0208333333333333
 43
0.0
 43
0.0
 43
0.0
 43
0.0
 43
0.0208333333333333
 43
0.0
 43
0.0
 43
0.0
 43
0.0
 43
1.0
 43
0.0
 43
0.0
 43
0.0
 43
0.0
 43
1.0
 77
     0
 47
0.0208333333333333
 47
0.0
 47
0.0
 47
0.0
 47
0.0
 47
0.0208333333333333
 47
0.0
 47
0.0
 47
0.0
 47
0.0
 47
1.0
 47
0.0
 47
0.0
 47
0.0
 47
0.0
 47
1.0
171
     0
 49
0.0208333333333333
 49
0.0
 49
0.0
 49
0.0
 49
0.0
 49
0.0208333333333333
 49
0.0
 49
0.0
 49
0.0
 49
0.0
 49
1.0
 49
0.0
 49
0.0
 49
0.0
 49
0.0
 49
1.0
175
     0
142
0.0208333333333333
142
0.0
142
0.0
142
0.0
142
0.0
142
0.0208333333333333
142
0.0
142
0.0
142
0.0
142
0.0
142
1.0
142
0.0
142
0.0
142
0.0
142
0.0
142
1.0
179
     0
144
0.0208333333333333
144
0.0
144
0.0
144
0.0
144
0.0
144
0.0208333333333333
144
0.0
144
0.0
144
0.0
144
0.0
144
1.0
144
0.0
144
0.0
144
0.0
144
0.0
144
1.0
147
0.0208333333333333
147
0.0
147
0.0
147
0.0
147
0.0
147
0.0208333333333333
147
0.0
147
0.0
147
0.0
147
0.0
147
1.0
147
0.0
147
0.0
147
0.0
147
0.0
147
1.0
  0
MLEADERSTYLE
  5
67
102
{ACAD_REACTORS
330
66
102
}
330
66
100
AcDbMLeaderStyle
179
     2
170
     2
171
     1
172
     0
 90
        2
 40
0.0
 41
0.0
173
     1
 91
-1056964608
340
5B
 92
       -2
290
     1
 42
0.09
291
     1
 43
0.36
  3
Standard
 44
0.18
300

342
55
174
     1
178
     6
175
     1
176
     0
 93
-1056964608
 45
0.18
292
     0
297
     0
 46
0.18
 94
-1056964608
 47
1.0
 49
1.0
140
1.0
293
     1
141
0.0
294
     1
177
     0
142
1.0
295
     1
296
     0
143
0.125
271
     0
272
     9
273
     9
298
     1
  0
MLINESTYLE
  5
60
102
{ACAD_REACTORS
330
5F
102
}
330
5F
100
AcDbMlineStyle
  2
STANDARD
 70
     0
  3

 62
   256
 51
90.0
 52
90.0
 71
     2
 49
0.5
 62
   256
  6
BYLAYER
 49
-0.5
 62
   256
  6
BYLAYER
  0
ACDBPLACEHOLDER
  5
F
102
{ACAD_REACTORS
330
E
102
}
330
E
  0
SCALE
  5
43
102
{ACAD_REACTORS
330
42
102
}
330
42
100
AcDbScale
 70
     0
300
1:1
140
1.0
141
1.0
290
     1
  0
SCALE
  5
44
102
{ACAD_REACTORS
330
42
102
}
330
42
100
AcDbScale
 70
     0
300
1/128" = 1'-0"
140
0.0078125
141
12.0
290
     0
  0
SCALE
  5
45
102
{ACAD_REACTORS
330
42
102
}
330
42
100
AcDbScale
 70
     0
300
1/64" = 1'-0"
140
0.015625
141
12.0
290
     0
  0
SCALE
  5
46
102
{ACAD_REACTORS
330
42
102
}
330
42
100
AcDbScale
 70
     0
300
1/32" = 1'-0"
140
0.03125
141
12.0
290
     0
  0
SCALE
  5
47
102
{ACAD_REACTORS
330
42
102
}
330
42
100
AcDbScale
 70
     0
300
1/16" = 1'-0"
140
0.0625
141
12.0
290
     0
  0
SCALE
  5
48
102
{ACAD_REACTORS
330
42
102
}
330
42
100
AcDbScale
 70
     0
300
3/32" = 1'-0"
140
0.09375
141
12.0
290
     0
  0
SCALE
  5
49
102
{ACAD_REACTORS
330
42
102
}
330
42
100
AcDbScale
 70
     0
300
1/8" = 1'-0"
140
0.125
141
12.0
290
     0
  0
SCALE
  5
4A
102
{ACAD_REACTORS
330
42
102
}
330
42
100
AcDbScale
 70
     0
300
3/16" = 1'-0"
140
0.1875
141
12.0
290
     0
  0
SCALE
  5
4B
102
{ACAD_REACTORS
330
42
102
}
330
42
100
AcDbScale
 70
     0
300
1/4" = 1'-0"
140
0.25
141
12.0
290
     0
  0
SCALE
  5
4C
102
{ACAD_REACTORS
330
42
102
}
330
42
100
AcDbScale
 70
     0
300
3/8" = 1'-0"
140
0.375
141
12.0
290
     0
  0
SCALE
  5
4D
102
{ACAD_REACTORS
330
42
102
}
330
42
100
AcDbScale
 70
     0
300
1/2" = 1'-0"
140
0.5
141
12.0
290
     0
  0
SCALE
  5
4E
102
{ACAD_REACTORS
330
42
102
}
330
42
100
AcDbScale
 70
     0
300
3/4" = 1'-0"
140
0.75
141
12.0
290
     0
  0
SCALE
  5
4F
102
{ACAD_REACTORS
330
42
102
}
330
42
100
AcDbScale
 70
     0
300
1" = 1'-0"
140
1.0
141
12.0
290
     0
  0
SCALE
  5
50
102
{ACAD_REACTORS
330
42
102
}
330
42
100
AcDbScale
 70
     0
300
1-1/2" = 1'-0"
140
1.5
141
12.0
290
     0
  0
SCALE
  5
51
102
{ACAD_REACTORS
330
42
102
}
330
42
100
AcDbScale
 70
     0
300
3" = 1'-0"
140
3.0
141
12.0
290
     0
  0
SCALE
  5
52
102
{ACAD_REACTORS
330
42
102
}
330
42
100
AcDbScale
 70
     0
300
6" = 1'-0"
140
6.0
141
12.0
290
     0
  0
SCALE
  5
53
102
{ACAD_REACTORS
330
42
102
}
330
42
100
AcDbScale
 70
     0
300
1'-0" = 1'-0"
140
12.0
141
12.0
290
     0
  0
ACDBSECTIONVIEWSTYLE
  5
69
102
{ACAD_REACTORS
330
68
102
}
330
68
100
AcDbModelDocViewStyle
 70
     0
  3
Imperial24
290
     1
300
Imperial24
 90
        0
100
AcDbSectionViewStyle
 70
     0
 71
     0
 90
       78
 71
     1
340
55
 62
   256
 40
0.24
340
0
340
0
 62
   256
 40
0.24
300
I, O, Q, S, X, Z
 40
0.48
 90
        3
 40
0.18
 90
        1
 71
     2
340
5D
 90
       25
 62
   256
340
5D
 90
       50
 62
   256
 40
0.24
 40
0.0
 40
0.24
 71
     3
340
55
 62
   256
 40
0.24
 90
        1
 40
0.75
 90
        1
300
%<\AcVar ViewType \f "%tc1">% %<\AcVar ViewSectionStartId>%-%<\AcVar ViewSectionEndId>%\PSCALE %<\AcVar ViewScale \f "%sn">%
 71
     4
 62
   256
 62
   257
300
ANSI31
 40
1.0
 90
        0
290
     0
290
     0
 90
        6
 40
0.0
 40
1.570796326794896
 40
0.2617993877991494
 40
1.308996938995747
 40
-0.2617993877991494
 40
1.832595714594046
  0
TABLESTYLE
  5
65
102
{ACAD_XDICTIONARY
360
106
102
}
102
{ACAD_REACTORS
330
64
102
}
330
64
100
AcDbTableStyle
280
     0
  3
Standard
 70
     0
 71
     0
 40
0.06
 41
0.06
280
     0
281
     0
  7
Standard
140
0.18
170
     2
 62
     0
 63
     7
283
     0
 90
      512
 91
        0
  1

274
    -2
284
     1
 64
     0
275
    -2
285
     1
 65
     0
276
    -2
286
     1
 66
     0
277
    -2
287
     1
 67
     0
278
    -2
288
     1
 68
     0
279
    -2
289
     1
 69
     0
  7
Standard
140
0.25
170
     5
 62
     0
 63
     7
283
     0
 90
      512
 91
        0
  1

274
    -2
284
     1
 64
     0
275
    -2
285
     1
 65
     0
276
    -2
286
     1
 66
     0
277
    -2
287
     1
 67
     0
278
    -2
288
     1
 68
     0
279
    -2
289
     1
 69
     0
  7
Standard
140
0.18
170
     5
 62
     0
 63
     7
283
     0
 90
      512
 91
        0
  1

274
    -2
284
     1
 64
     0
275
    -2
285
     1
 65
     0
276
    -2
286
     1
 66
     0
277
    -2
287
     1
 67
     0
278
    -2
288
     1
 68
     0
279
    -2
289
     1
 69
     0
  0
VISUALSTYLE
  5
2F
102
{ACAD_REACTORS
330
29
102
}
330
29
100
AcDbVisualStyle
  2
2dWireframe
 70
     4
177
     3
291
     0
 70
    58
 90
        0
176
     1
 90
        2
176
     1
 90
        0
176
     1
 90
        0
176
     1
 40
0.6
176
     1
 40
30.0
176
     1
 62
     7
420
 16777215
176
     1
 90
        1
176
     1
 90
        4
176
     1
 62
     7
176
     1
 62
   257
176
     1
 90
        1
176
     1
 90
        1
176
     1
 40
1.0
176
     1
 90
        0
176
     1
 62
   257
176
     1
 40
1.0
176
     1
 90
        1
176
     1
 90
        6
176
     1
 90
        2
176
     1
 62
     7
176
     1
 90
        5
176
     1
 90
        0
176
     1
 90
        0
176
     1
290
     0
176
     1
 90
        1
176
     1
 40
0.0
176
     1
 90
        0
176
     1
290
     1
176
     1
290
     1
176
     1
290
     0
176
     1
290
     0
176
     1
290
     0
176
     1
290
     0
176
     1
290
     0
176
     1
290
     0
176
     1
290
     0
176
     1
 90
       50
176
     1
 40
0.0
176
     1
 40
1.0
176
     1
 90
        0
176
     1
 62
    18
420
        0
176
     1
 90
       50
176
     1
 90
        3
176
     1
 62
     5
420
      255
176
     1
290
     0
176
     1
 90
       50
176
     1
 90
       50
176
     1
 90
       50
176
     1
290
     0
176
     1
 90
       50
176
     1
 62
   256
176
     0
 40
1.0
176
     0
 90
        2
176
     1
  1
strokes_ogs.tif
176
     1
290
     0
176
     1
 40
1.0
176
     1
 40
1.0
176
     1
  0
VISUALSTYLE
  5
2E
102
{ACAD_REACTORS
330
29
102
}
330
29
100
AcDbVisualStyle
  2
Basic
 70
     7
177
     3
291
     1
 70
    58
 90
        1
176
     1
 90
        0
176
     1
 90
        1
176
     1
 90
        0
176
     1
 40
0.6
176
     1
 40
30.0
176
     1
 62
     7
420
 16777215
176
     1
 90
        0
176
     1
 90
        4
176
     1
 62
     7
176
     1
 62
   257
176
     1
 90
        1
176
     1
 90
        1
176
     1
 40
1.0
176
     1
 90
        8
176
     1
 62
     7
176
     1
 40
1.0
176
     1
 90
        1
176
     1
 90
        6
176
     1
 90
        2
176
     1
 62
     7
176
     1
 90
        5
176
     1
 90
        0
176
     1
 90
        0
176
     1
290
     0
176
     1
 90
        1
176
     1
 40
0.0
176
     1
 90
        0
176
     1
290
     0
176
     1
290
     1
176
     1
290
     1
176
     1
290
     0
176
     1
290
     0
176
     1
290
     0
176
     1
290
     0
176
     1
290
     0
176
     1
290
     0
176
     1
 90
       50
176
     1
 40
0.0
176
     1
 40
1.0
176
     1
 90
        0
176
     1
 62
    18
420
        0
176
     1
 90
       50
176
     1
 90
        3
176
     1
 62
     5
420
      255
176
     1
290
     0
176
     1
 90
       50
176
     1
 90
       50
176
     1
 90
       50
176
     1
290
     0
176
     1
 90
       50
176
     1
 62
   256
176
     0
 40
1.0
176
     0
 90
        2
176
     1
  1
strokes_ogs.tif
176
     1
290
     0
176
     1
 40
1.0
176
     1
 40
1.0
176
     1
  0
VISUALSTYLE
  5
35
102
{ACAD_REACTORS
330
29
102
}
330
29
100
AcDbVisualStyle
  2
Brighten
 70
    12
177
     3
291
     1
 70
    58
 90
        2
176
     1
 90
        2
176
     1
 90
        0
176
     1
 90
        0
176
     1
 40
0.6
176
     1
 40
30.0
176
     1
 62
     7
420
 16777215
176
     1
 90
        1
176
     1
 90
        4
176
     1
 62
     7
176
     1
 62
   257
176
     1
 90
        1
176
     1
 90
        1
176
     1
 40
1.0
176
     1
 90
        8
176
     1
 62
     7
176
     1
 40
1.0
176
     1
 90
        1
176
     1
 90
        6
176
     1
 90
        2
176
     1
 62
     7
176
     1
 90
        5
176
     1
 90
        0
176
     1
 90
        0
176
     1
290
     0
176
     1
 90
        1
176
     1
 40
50.0
176
     1
 90
        0
176
     1
290
     0
176
     1
290
     1
176
     1
290
     1
176
     1
290
     0
176
     1
290
     0
176
     1
290
     0
176
     1
290
     0
176
     1
290
     0
176
     1
290
     0
176
     1
 90
       50
176
     1
 40
0.0
176
     1
 40
1.0
176
     1
 90
        0
176
     1
 62
    18
420
        0
176
     1
 90
       50
176
     1
 90
        3
176
     1
 62
     5
420
      255
176
     1
290
     0
176
     1
 90
       50
176
     1
 90
       50
176
     1
 90
       50
176
     1
290
     0
176
     1
 90
       50
176
     1
 62
   256
176
     0
 40
1.0
176
     0
 90
        2
176
     1
  1
strokes_ogs.tif
176
     1
290
     0
176
     1
 40
1.0
176
     1
 40
1.0
176
     1
  0
VISUALSTYLE
  5
39
102
{ACAD_REACTORS
330
29
102
}
330
29
100
AcDbVisualStyle
  2
ColorChange
 70
    16
177
     3
291
     1
 70
    58
 90
        2
176
     1
 90
        2
176
     1
 90
        3
176
     1
 90
        0
176
     1
 40
0.6
176
     1
 40
30.0
176
     1
 62
     8
420
  8421504
176
     1
 90
        1
176
     1
 90
        4
176
     1
 62
     7
176
     1
 62
   257
176
     1
 90
        1
176
     1
 90
        1
176
     1
 40
1.0
176
     1
 90
        8
176
     1
 62
     8
420
  8421504
176
     1
 40
1.0
176
     1
 90
        1
176
     1
 90
        6
176
     1
 90
        2
176
     1
 62
     7
176
     1
 90
        5
176
     1
 90
        0
176
     1
 90
        0
176
     1
290
     0
176
     1
 90
        1
176
     1
 40
0.0
176
     1
 90
        0
176
     1
290
     0
176
     1
290
     1
176
     1
290
     1
176
     1
290
     0
176
     1
290
     0
176
     1
290
     0
176
     1
290
     0
176
     1
290
     0
176
     1
290
     0
176
     1
 90
       50
176
     1
 40
0.0
176
     1
 40
1.0
176
     1
 90
        0
176
     1
 62
    18
420
        0
176
     1
 90
       50
176
     1
 90
        3
176
     1
 62
     5
420
      255
176
     1
290
     0
176
     1
 90
       50
176
     1
 90
       50
176
     1
 90
       50
176
     1
290
     0
176
     1
 90
       50
176
     1
 62
   256
176
     0
 40
1.0
176
     0
 90
        2
176
     1
  1
strokes_ogs.tif
176
     1
290
     0
176
     1
 40
1.0
176
     1
 40
1.0
176
     1
  0
VISUALSTYLE
  5
32
102
{ACAD_REACTORS
330
29
102
}
330
29
100
AcDbVisualStyle
  2
Conceptual
 70
     9
177
     3
291
     0
 70
    58
 90
        3
176
     1
 90
        2
176
     1
 90
        0
176
     1
 90
        0
176
     1
 40
0.6
176
     1
 40
30.0
176
     1
 62
     7
420
 16777215
176
     1
 90
        2
176
     1
 90
        2
176
     1
 62
     7
176
     1
 62
   257
176
     1
 90
        1
176
     1
 90
        1
176
     1
 40
179.0
176
     1
 90
        8
176
     1
 62
     7
176
     1
 40
1.0
176
     1
 90
        1
176
     1
 90
        6
176
     1
 90
        2
176
     1
 62
     7
176
     1
 90
        3
176
     1
 90
        0
176
     1
 90
        0
176
     1
290
     0
176
     1
 90
        1
176
     1
 40
0.0
176
     1
 90
        0
176
     1
290
     0
176
     1
290
     1
176
     1
290
     1
176
     1
290
     0
176
     1
290
     0
176
     1
290
     0
176
     1
290
     0
176
     1
290
     0
176
     1
290
     0
176
     1
 90
       50
176
     1
 40
0.0
176
     1
 40
1.0
176
     1
 90
        0
176
     1
 62
    18
420
        0
176
     1
 90
       50
176
     1
 90
        3
176
     1
 62
     5
420
      255
176
     1
290
     0
176
     1
 90
       50
176
     1
 90
       50
176
     1
 90
       50
176
     1
290
     0
176
     1
 90
       50
176
     1
 62
   256
176
     0
 40
1.0
176
     0
 90
        2
176
     1
  1
strokes_ogs.tif
176
     1
290
     0
176
     1
 40
1.0
176
     1
 40
1.0
176
     1
  0
VISUALSTYLE
  5
34
102
{ACAD_REACTORS
330
29
102
}
330
29
100
AcDbVisualStyle
  2
Dim
 70
    11
177
     3
291
     1
 70
    58
 90
        2
176
     1
 90
        2
176
     1
 90
        0
176
     1
 90
        0
176
     1
 40
0.6
176
     1
 40
30.0
176
     1
 62
     7
420
 16777215
176
     1
 90
        1
176
     1
 90
        4
176
     1
 62
     7
176
     1
 62
   257
176
     1
 90
        1
176
     1
 90
        1
176
     1
 40
1.0
176
     1
 90
        8
176
     1
 62
     7
176
     1
 40
1.0
176
     1
 90
        1
176
     1
 90
        6
176
     1
 90
        2
176
     1
 62
     7
176
     1
 90
        5
176
     1
 90
        0
176
     1
 90
        0
176
     1
290
     0
176
     1
 90
        1
176
     1
 40
-50.0
176
     1
 90
        0
176
     1
290
     0
176
     1
290
     1
176
     1
290
     1
176
     1
290
     0
176
     1
290
     0
176
     1
290
     0
176
     1
290
     0
176
     1
290
     0
176
     1
290
     0
176
     1
 90
       50
176
     1
 40
0.0
176
     1
 40
1.0
176
     1
 90
        0
176
     1
 62
    18
420
        0
176
     1
 90
       50
176
     1
 90
        3
176
     1
 62
     5
420
      255
176
     1
290
     0
176
     1
 90
       50
176
     1
 90
       50
176
     1
 90
       50
176
     1
290
     0
176
     1
 90
       50
176
     1
 62
   256
176
     0
 40
1.0
176
     0
 90
        2
176
     1
  1
strokes_ogs.tif
176
     1
290
     0
176
     1
 40
1.0
176
     1
 40
1.0
176
     1
  0
VISUALSTYLE
  5
41
102
{ACAD_REACTORS
330
29
102
}
330
29
100
AcDbVisualStyle
  2
EdgeColorOff
 70
    22
177
     3
291
     1
 70
    58
 90
        2
176
     0
 90
        2
176
     0
 90
        0
176
     0
 90
        0
176
     0
 40
0.6
176
     0
 40
30.0
176
     0
 62
     7
420
 16777215
176
     0
 90
        1
176
     0
 90
        4
176
     0
 62
     7
176
     0
 62
   257
176
     0
 90
        1
176
     0
 90
        1
176
     0
 40
1.0
176
     0
 90
        8
176
     2
 62
     7
176
     0
 40
1.0
176
     0
 90
        1
176
     0
 90
        6
176
     0
 90
        2
176
     0
 62
     7
176
     0
 90
        5
176
     0
 90
        0
176
     0
 90
        0
176
     0
290
     0
176
     0
 90
        1
176
     0
 40
0.0
176
     0
 90
        0
176
     0
290
     0
176
     0
290
     1
176
     0
290
     1
176
     0
290
     0
176
     0
290
     0
176
     0
290
     0
176
     0
290
     0
176
     0
290
     0
176
     0
290
     0
176
     0
 90
       50
176
     0
 40
0.0
176
     0
 40
1.0
176
     0
 90
        0
176
     0
 62
    18
420
        0
176
     0
 90
       50
176
     0
 90
        3
176
     0
 62
     5
420
      255
176
     0
290
     0
176
     0
 90
       50
176
     0
 90
       50
176
     0
 90
       50
176
     0
290
     0
176
     0
 90
       50
176
     0
 62
   256
176
     0
 40
1.0
176
     0
 90
        2
176
     0
  1
strokes_ogs.tif
176
     0
290
     0
176
     0
 40
1.0
176
     0
 40
1.0
176
     0
  0
VISUALSTYLE
  5
38
102
{ACAD_REACTORS
330
29
102
}
330
29
100
AcDbVisualStyle
  2
Facepattern
 70
    15
177
     3
291
     1
 70
    58
 90
        2
176
     1
 90
        2
176
     1
 90
        0
176
     1
 90
        0
176
     1
 40
0.6
176
     1
 40
30.0
176
     1
 62
     7
420
 16777215
176
     1
 90
        1
176
     1
 90
        4
176
     1
 62
     7
176
     1
 62
   257
176
     1
 90
        1
176
     1
 90
        1
176
     1
 40
1.0
176
     1
 90
        8
176
     1
 62
     7
176
     1
 40
1.0
176
     1
 90
        1
176
     1
 90
        6
176
     1
 90
        2
176
     1
 62
     7
176
     1
 90
        5
176
     1
 90
        0
176
     1
 90
        0
176
     1
290
     0
176
     1
 90
        1
176
     1
 40
0.0
176
     1
 90
        0
176
     1
290
     0
176
     1
290
     1
176
     1
290
     1
176
     1
290
     0
176
     1
290
     0
176
     1
290
     0
176
     1
290
     0
176
     1
290
     0
176
     1
290
     0
176
     1
 90
       50
176
     1
 40
0.0
176
     1
 40
1.0
176
     1
 90
        0
176
     1
 62
    18
420
        0
176
     1
 90
       50
176
     1
 90
        3
176
     1
 62
     5
420
      255
176
     1
290
     0
176
     1
 90
       50
176
     1
 90
       50
176
     1
 90
       50
176
     1
290
     0
176
     1
 90
       50
176
     1
 62
   256
176
     0
 40
1.0
176
     0
 90
        2
176
     1
  1
strokes_ogs.tif
176
     1
290
     0
176
     1
 40
1.0
176
     1
 40
1.0
176
     1
  0
VISUALSTYLE
  5
2A
102
{ACAD_REACTORS
330
29
102
}
330
29
100
AcDbVisualStyle
  2
Flat
 70
     0
177
     3
291
     1
 70
    58
 90
        2
176
     1
 90
        1
176
     1
 90
        1
176
     1
 90
        2
176
     1
 40
0.6
176
     1
 40
30.0
176
     1
 62
     7
420
 16777215
176
     1
 90
        0
176
     1
 90
        0
176
     1
 62
     7
176
     1
 62
   257
176
     1
 90
        1
176
     1
 90
        1
176
     1
 40
1.0
176
     1
 90
        8
176
     1
 62
     7
176
     1
 40
1.0
176
     1
 90
        1
176
     1
 90
        6
176
     1
 90
        2
176
     1
 62
     7
176
     1
 90
        5
176
     1
 90
        0
176
     1
 90
        0
176
     1
290
     0
176
     1
 90
       13
176
     1
 40
0.0
176
     1
 90
        0
176
     1
290
     0
176
     1
290
     1
176
     1
290
     1
176
     1
290
     0
176
     1
290
     0
176
     1
290
     0
176
     1
290
     0
176
     1
290
     0
176
     1
290
     0
176
     1
 90
       50
176
     1
 40
0.0
176
     1
 40
1.0
176
     1
 90
        0
176
     1
 62
    18
420
        0
176
     1
 90
       50
176
     1
 90
        3
176
     1
 62
     5
420
      255
176
     1
290
     0
176
     1
 90
       50
176
     1
 90
       50
176
     1
 90
       50
176
     1
290
     0
176
     1
 90
       50
176
     1
 62
   256
176
     0
 40
1.0
176
     0
 90
        2
176
     1
  1
strokes_ogs.tif
176
     1
290
     0
176
     1
 40
1.0
176
     1
 40
1.0
176
     1
  0
VISUALSTYLE
  5
2B
102
{ACAD_REACTORS
330
29
102
}
330
29
100
AcDbVisualStyle
  2
FlatWithEdges
 70
     1
177
     3
291
     1
 70
    58
 90
        2
176
     1
 90
        1
176
     1
 90
        1
176
     1
 90
        2
176
     1
 40
0.6
176
     1
 40
30.0
176
     1
 62
     7
420
 16777215
176
     1
 90
        1
176
     1
 90
        0
176
     1
 62
     7
176
     1
 62
   257
176
     1
 90
        1
176
     1
 90
        1
176
     1
 40
1.0
176
     1
 90
        0
176
     1
 62
   257
176
     1
 40
1.0
176
     1
 90
        1
176
     1
 90
        6
176
     1
 90
        2
176
     1
 62
     7
176
     1
 90
        5
176
     1
 90
        0
176
     1
 90
        0
176
     1
290
     0
176
     1
 90
       13
176
     1
 40
0.0
176
     1
 90
        0
176
     1
290
     0
176
     1
290
     1
176
     1
290
     1
176
     1
290
     0
176
     1
290
     0
176
     1
290
     0
176
     1
290
     0
176
     1
290
     0
176
     1
290
     0
176
     1
 90
       50
176
     1
 40
0.0
176
     1
 40
1.0
176
     1
 90
        0
176
     1
 62
    18
420
        0
176
     1
 90
       50
176
     1
 90
        3
176
     1
 62
     5
420
      255
176
     1
290
     0
176
     1
 90
       50
176
     1
 90
       50
176
     1
 90
       50
176
     1
290
     0
176
     1
 90
       50
176
     1
 62
   256
176
     0
 40
1.0
176
     0
 90
        2
176
     1
  1
strokes_ogs.tif
176
     1
290
     0
176
     1
 40
1.0
176
     1
 40
1.0
176
     1
  0
VISUALSTYLE
  5
2C
102
{ACAD_REACTORS
330
29
102
}
330
29
100
AcDbVisualStyle
  2
Gouraud
 70
     2
177
     3
291
     1
 70
    58
 90
        2
176
     1
 90
        2
176
     1
 90
        1
176
     1
 90
        2
176
     1
 40
0.6
176
     1
 40
30.0
176
     1
 62
     7
420
 16777215
176
     1
 90
        0
176
     1
 90
        0
176
     1
 62
     7
176
     1
 62
   257
176
     1
 90
        1
176
     1
 90
        1
176
     1
 40
1.0
176
     1
 90
        0
176
     1
 62
     7
176
     1
 40
1.0
176
     1
 90
        1
176
     1
 90
        6
176
     1
 90
        2
176
     1
 62
     7
176
     1
 90
        5
176
     1
 90
        0
176
     1
 90
        0
176
     1
290
     0
176
     1
 90
       13
176
     1
 40
0.0
176
     1
 90
        0
176
     1
290
     0
176
     1
290
     1
176
     1
290
     1
176
     1
290
     0
176
     1
290
     0
176
     1
290
     0
176
     1
290
     0
176
     1
290
     0
176
     1
290
     0
176
     1
 90
       50
176
     1
 40
0.0
176
     1
 40
1.0
176
     1
 90
        0
176
     1
 62
    18
420
        0
176
     1
 90
       50
176
     1
 90
        3
176
     1
 62
     5
420
      255
176
     1
290
     0
176
     1
 90
       50
176
     1
 90
       50
176
     1
 90
       50
176
     1
290
     0
176
     1
 90
       50
176
     1
 62
   256
176
     0
 40
1.0
176
     0
 90
        2
176
     1
  1
strokes_ogs.tif
176
     1
290
     0
176
     1
 40
1.0
176
     1
 40
1.0
176
     1
  0
VISUALSTYLE
  5
2D
102
{ACAD_REACTORS
330
29
102
}
330
29
100
AcDbVisualStyle
  2
GouraudWithEdges
 70
     3
177
     3
291
     1
 70
    58
 90
        2
176
     1
 90
        2
176
     1
 90
        1
176
     1
 90
        2
176
     1
 40
0.6
176
     1
 40
30.0
176
     1
 62
     7
420
 16777215
176
     1
 90
        1
176
     1
 90
        0
176
     1
 62
     7
176
     1
 62
   257
176
     1
 90
        1
176
     1
 90
        1
176
     1
 40
1.0
176
     1
 90
        0
176
     1
 62
   257
176
     1
 40
1.0
176
     1
 90
        1
176
     1
 90
        6
176
     1
 90
        2
176
     1
 62
     7
176
     1
 90
        5
176
     1
 90
        0
176
     1
 90
        0
176
     1
290
     0
176
     1
 90
       13
176
     1
 40
0.0
176
     1
 90
        0
176
     1
290
     0
176
     1
290
     1
176
     1
290
     1
176
     1
290
     0
176
     1
290
     0
176
     1
290
     0
176
     1
290
     0
176
     1
290
     0
176
     1
290
     0
176
     1
 90
       50
176
     1
 40
0.0
176
     1
 40
1.0
176
     1
 90
        0
176
     1
 62
    18
420
        0
176
     1
 90
       50
176
     1
 90
        3
176
     1
 62
     5
420
      255
176
     1
290
     0
176
     1
 90
       50
176
     1
 90
       50
176
     1
 90
       50
176
     1
290
     0
176
     1
 90
       50
176
     1
 62
   256
176
     0
 40
1.0
176
     0
 90
        2
176
     1
  1
strokes_ogs.tif
176
     1
290
     0
176
     1
 40
1.0
176
     1
 40
1.0
176
     1
  0
VISUALSTYLE
  5
31
102
{ACAD_REACTORS
330
29
102
}
330
29
100
AcDbVisualStyle
  2
Hidden
 70
     6
177
     3
291
     0
 70
    58
 90
        1
176
     1
 90
        2
176
     1
 90
        2
176
     1
 90
        0
176
     1
 40
0.6
176
     1
 40
30.0
176
     1
 62
     7
420
 16777215
176
     1
 90
        2
176
     1
 90
        2
176
     1
 62
     7
176
     1
 62
   257
176
     1
 90
        2
176
     1
 90
        1
176
     1
 40
40.0
176
     1
 90
        0
176
     1
 62
   257
176
     1
 40
1.0
176
     1
 90
        1
176
     1
 90
        6
176
     1
 90
        2
176
     1
 62
     7
176
     1
 90
        3
176
     1
 90
        0
176
     1
 90
        0
176
     1
290
     0
176
     1
 90
        1
176
     1
 40
0.0
176
     1
 90
        0
176
     1
290
     0
176
     1
290
     1
176
     1
290
     1
176
     1
290
     0
176
     1
290
     0
176
     1
290
     0
176
     1
290
     0
176
     1
290
     0
176
     1
290
     0
176
     1
 90
       50
176
     1
 40
0.0
176
     1
 40
1.0
176
     1
 90
        0
176
     1
 62
    18
420
        0
176
     1
 90
       50
176
     1
 90
        3
176
     1
 62
     5
420
      255
176
     1
290
     0
176
     1
 90
       50
176
     1
 90
       50
176
     1
 90
       50
176
     1
290
     0
176
     1
 90
       50
176
     1
 62
   256
176
     0
 40
1.0
176
     0
 90
        2
176
     1
  1
strokes_ogs.tif
176
     1
290
     0
176
     1
 40
1.0
176
     1
 40
1.0
176
     1
  0
VISUALSTYLE
  5
3F
102
{ACAD_REACTORS
330
29
102
}
330
29
100
AcDbVisualStyle
  2
JitterOff
 70
    20
177
     3
291
     1
 70
    58
 90
        2
176
     0
 90
        2
176
     0
 90
        0
176
     0
 90
        0
176
     0
 40
0.6
176
     0
 40
30.0
176
     0
 62
     7
420
 16777215
176
     0
 90
        1
176
     0
 90
        4
176
     0
 62
     7
176
     0
 62
   257
176
     0
 90
        1
176
     0
 90
        1
176
     0
 40
1.0
176
     0
 90
       10
176
     2
 62
     7
176
     0
 40
1.0
176
     0
 90
        1
176
     0
 90
        6
176
     0
 90
        2
176
     0
 62
     7
176
     0
 90
        5
176
     0
 90
        0
176
     0
 90
        0
176
     0
290
     0
176
     0
 90
        1
176
     0
 40
0.0
176
     0
 90
        0
176
     0
290
     0
176
     0
290
     1
176
     0
290
     1
176
     0
290
     0
176
     0
290
     0
176
     0
290
     0
176
     0
290
     0
176
     0
290
     0
176
     0
290
     0
176
     0
 90
       50
176
     0
 40
0.0
176
     0
 40
1.0
176
     0
 90
        0
176
     0
 62
    18
420
        0
176
     0
 90
       50
176
     0
 90
        3
176
     0
 62
     5
420
      255
176
     0
290
     0
176
     0
 90
       50
176
     0
 90
       50
176
     0
 90
       50
176
     0
290
     0
176
     0
 90
       50
176
     0
 62
   256
176
     0
 40
1.0
176
     0
 90
        2
176
     0
  1
strokes_ogs.tif
176
     0
290
     0
176
     0
 40
1.0
176
     0
 40
1.0
176
     0
  0
VISUALSTYLE
  5
37
102
{ACAD_REACTORS
330
29
102
}
330
29
100
AcDbVisualStyle
  2
Linepattern
 70
    14
177
     3
291
     1
 70
    58
 90
        2
176
     1
 90
        2
176
     1
 90
        0
176
     1
 90
        0
176
     1
 40
0.6
176
     1
 40
30.0
176
     1
 62
     7
420
 16777215
176
     1
 90
        1
176
     1
 90
        4
176
     1
 62
     7
176
     1
 62
   257
176
     1
 90
        7
176
     1
 90
        7
176
     1
 40
1.0
176
     1
 90
        8
176
     1
 62
     7
176
     1
 40
1.0
176
     1
 90
        1
176
     1
 90
        6
176
     1
 90
        2
176
     1
 62
     7
176
     1
 90
        5
176
     1
 90
        0
176
     1
 90
        0
176
     1
290
     0
176
     1
 90
        1
176
     1
 40
0.0
176
     1
 90
        0
176
     1
290
     0
176
     1
290
     1
176
     1
290
     1
176
     1
290
     0
176
     1
290
     0
176
     1
290
     0
176
     1
290
     0
176
     1
290
     0
176
     1
290
     0
176
     1
 90
       50
176
     1
 40
0.0
176
     1
 40
1.0
176
     1
 90
        0
176
     1
 62
    18
420
        0
176
     1
 90
       50
176
     1
 90
        3
176
     1
 62
     5
420
      255
176
     1
290
     0
176
     1
 90
       50
176
     1
 90
       50
176
     1
 90
       50
176
     1
290
     0
176
     1
 90
       50
176
     1
 62
   256
176
     0
 40
1.0
176
     0
 90
        2
176
     1
  1
strokes_ogs.tif
176
     1
290
     0
176
     1
 40
1.0
176
     1
 40
1.0
176
     1
  0
VISUALSTYLE
  5
40
102
{ACAD_REACTORS
330
29
102
}
330
29
100
AcDbVisualStyle
  2
OverhangOff
 70
    21
177
     3
291
     1
 70
    58
 90
        2
176
     0
 90
        2
176
     0
 90
        0
176
     0
 90
        0
176
     0
 40
0.6
176
     0
 40
30.0
176
     0
 62
     7
420
 16777215
176
     0
 90
        1
176
     0
 90
        4
176
     0
 62
     7
176
     0
 62
   257
176
     0
 90
        1
176
     0
 90
        1
176
     0
 40
1.0
176
     0
 90
        9
176
     2
 62
     7
176
     0
 40
1.0
176
     0
 90
        1
176
     0
 90
        6
176
     0
 90
        2
176
     0
 62
     7
176
     0
 90
        5
176
     0
 90
        0
176
     0
 90
        0
176
     0
290
     0
176
     0
 90
        1
176
     0
 40
0.0
176
     0
 90
        0
176
     0
290
     0
176
     0
290
     1
176
     0
290
     1
176
     0
290
     0
176
     0
290
     0
176
     0
290
     0
176
     0
290
     0
176
     0
290
     0
176
     0
290
     0
176
     0
 90
       50
176
     0
 40
0.0
176
     0
 40
1.0
176
     0
 90
        0
176
     0
 62
    18
420
        0
176
     0
 90
       50
176
     0
 90
        3
176
     0
 62
     5
420
      255
176
     0
290
     0
176
     0
 90
       50
176
     0
 90
       50
176
     0
 90
       50
176
     0
290
     0
176
     0
 90
       50
176
     0
 62
   256
176
     0
 40
1.0
176
     0
 90
        2
176
     0
  1
strokes_ogs.tif
176
     0
290
     0
176
     0
 40
1.0
176
     0
 40
1.0
176
     0
  0
VISUALSTYLE
  5
33
102
{ACAD_REACTORS
330
29
102
}
330
29
100
AcDbVisualStyle
  2
Realistic
 70
     8
177
     3
291
     0
 70
    58
 90
        2
176
     1
 90
        3
176
     1
 90
        0
176
     1
 90
        2
176
     1
 40
0.6
176
     1
 40
30.0
176
     1
 62
     7
420
 16777215
176
     1
 90
        0
176
     1
 90
        0
176
     1
 62
     7
176
     1
 62
   257
176
     1
 90
        1
176
     1
 90
        1
176
     1
 40
1.0
176
     1
 90
        8
176
     1
 62
   257
176
     1
 40
1.0
176
     1
 90
        1
176
     1
 90
        6
176
     1
 90
        2
176
     1
 62
     7
176
     1
 90
        3
176
     1
 90
        0
176
     1
 90
        0
176
     1
290
     0
176
     1
 90
       13
176
     1
 40
0.0
176
     1
 90
        0
176
     1
290
     0
176
     1
290
     1
176
     1
290
     1
176
     1
290
     0
176
     1
290
     0
176
     1
290
     0
176
     1
290
     0
176
     1
290
     0
176
     1
290
     0
176
     1
 90
       50
176
     1
 40
0.0
176
     1
 40
1.0
176
     1
 90
        0
176
     1
 62
    18
420
        0
176
     1
 90
       50
176
     1
 90
        3
176
     1
 62
     5
420
      255
176
     1
290
     0
176
     1
 90
       50
176
     1
 90
       50
176
     1
 90
       50
176
     1
290
     0
176
     1
 90
       50
176
     1
 62
   256
176
     0
 40
1.0
176
     0
 90
        2
176
     1
  1
strokes_ogs.tif
176
     1
290
     0
176
     1
 40
1.0
176
     1
 40
1.0
176
     1
  0
VISUALSTYLE
  5
3E
102
{ACAD_REACTORS
330
29
102
}
330
29
100
AcDbVisualStyle
  2
Shaded
 70
    27
177
     3
291
     0
 70
    58
 90
        2
176
     1
 90
        2
176
     1
 90
        1
176
     1
 90
        2
176
     1
 40
0.6
176
     1
 40
30.0
176
     1
 62
     7
420
 16777215
176
     1
 90
        0
176
     1
 90
        4
176
     1
 62
     7
176
     1
 62
   257
176
     1
 90
        1
176
     1
 90
        1
176
     1
 40
1.0
176
     1
 90
        8
176
     1
 62
   257
176
     1
 40
1.0
176
     1
 90
        1
176
     1
 90
        6
176
     1
 90
        2
176
     1
 62
     8
420
  7895160
176
     1
 90
        3
176
     1
 90
        0
176
     1
 90
        0
176
     1
290
     0
176
     1
 90
        5
176
     1
 40
0.0
176
     1
 90
        0
176
     1
290
     0
176
     1
290
     1
176
     1
290
     1
176
     1
290
     0
176
     1
290
     0
176
     1
290
     0
176
     1
290
     0
176
     1
290
     0
176
     1
290
     0
176
     1
 90
       50
176
     1
 40
0.0
176
     1
 40
1.0
176
     1
 90
        0
176
     1
 62
    18
420
        0
176
     1
 90
       50
176
     1
 90
        3
176
     1
 62
     5
420
      255
176
     1
290
     0
176
     1
 90
       50
176
     1
 90
       50
176
     1
 90
       50
176
     1
290
     0
176
     1
 90
       50
176
     1
 62
   256
176
     0
 40
1.0
176
     0
 90
        2
176
     1
  1
strokes_ogs.tif
176
     1
290
     0
176
     1
 40
1.0
176
     1
 40
1.0
176
     1
  0
VISUALSTYLE
  5
3D
102
{ACAD_REACTORS
330
29
102
}
330
29
100
AcDbVisualStyle
  2
Shaded with edges
 70
    26
177
     3
291
     0
 70
    58
 90
        2
176
     1
 90
        2
176
     1
 90
        1
176
     1
 90
        2
176
     1
 40
0.6
176
     1
 40
30.0
176
     1
 62
     7
420
 16777215
176
     1
 90
        1
176
     1
 90
        2
176
     1
 62
     7
176
     1
 62
   257
176
     1
 90
        2
176
     1
 90
        1
176
     1
 40
1.0
176
     1
 90
        8
176
     1
 62
   257
176
     1
 40
1.0
176
     1
 90
        1
176
     1
 90
        6
176
     1
 90
        2
176
     1
 62
     7
176
     1
 90
        3
176
     1
 90
        0
176
     1
 90
        0
176
     1
290
     0
176
     1
 90
        5
176
     1
 40
0.0
176
     1
 90
        0
176
     1
290
     0
176
     1
290
     1
176
     1
290
     1
176
     1
290
     0
176
     1
290
     0
176
     1
290
     0
176
     1
290
     0
176
     1
290
     0
176
     1
290
     0
176
     1
 90
       50
176
     1
 40
0.0
176
     1
 40
1.0
176
     1
 90
        0
176
     1
 62
    18
420
        0
176
     1
 90
       50
176
     1
 90
        3
176
     1
 62
     5
420
      255
176
     1
290
     0
176
     1
 90
       50
176
     1
 90
       50
176
     1
 90
       50
176
     1
290
     0
176
     1
 90
       50
176
     1
 62
   256
176
     0
 40
1.0
176
     0
 90
        2
176
     1
  1
strokes_ogs.tif
176
     1
290
     0
176
     1
 40
1.0
176
     1
 40
1.0
176
     1
  0
VISUALSTYLE
  5
3A
102
{ACAD_REACTORS
330
29
102
}
330
29
100
AcDbVisualStyle
  2
Shades of Gray
 70
    23
177
     3
291
     0
 70
    58
 90
        2
176
     1
 90
        2
176
     1
 90
        3
176
     1
 90
        0
176
     1
 40
0.6
176
     1
 40
30.0
176
     1
 62
     7
420
 16777215
176
     1
 90
        2
176
     1
 90
        2
176
     1
 62
     7
176
     1
 62
     7
176
     1
 90
        1
176
     1
 90
        1
176
     1
 40
40.0
176
     1
 90
        8
176
     1
 62
     7
176
     1
 40
1.0
176
     1
 90
        1
176
     1
 90
        6
176
     1
 90
        2
176
     1
 62
     7
176
     1
 90
        3
176
     1
 90
        0
176
     1
 90
        0
176
     1
290
     0
176
     1
 90
        1
176
     1
 40
0.0
176
     1
 90
        0
176
     1
290
     0
176
     1
290
     1
176
     1
290
     1
176
     1
290
     0
176
     1
290
     0
176
     1
290
     0
176
     1
290
     0
176
     1
290
     0
176
     1
290
     0
176
     1
 90
       50
176
     1
 40
0.0
176
     1
 40
1.0
176
     1
 90
        0
176
     1
 62
    18
420
        0
176
     1
 90
       50
176
     1
 90
        3
176
     1
 62
     5
420
      255
176
     1
290
     0
176
     1
 90
       50
176
     1
 90
       50
176
     1
 90
       50
176
     1
290
     0
176
     1
 90
       50
176
     1
 62
   256
176
     0
 40
1.0
176
     0
 90
        2
176
     1
  1
strokes_ogs.tif
176
     1
290
     0
176
     1
 40
1.0
176
     1
 40
1.0
176
     1
  0
VISUALSTYLE
  5
3B
102
{ACAD_REACTORS
330
29
102
}
330
29
100
AcDbVisualStyle
  2
Sketchy
 70
    24
177
     3
291
     0
 70
    58
 90
        1
176
     1
 90
        2
176
     1
 90
        2
176
     1
 90
        0
176
     1
 40
0.6
176
     1
 40
30.0
176
     1
 62
     7
420
 16777215
176
     1
 90
        2
176
     1
 90
        2
176
     1
 62
     7
176
     1
 62
     7
176
     1
 90
        1
176
     1
 90
        1
176
     1
 40
40.0
176
     1
 90
       11
176
     1
 62
     7
176
     1
 40
1.0
176
     1
 90
        1
176
     1
 90
        6
176
     1
 90
        2
176
     1
 62
     7
176
     1
 90
        6
176
     1
 90
        0
176
     1
 90
        0
176
     1
290
     0
176
     1
 90
        1
176
     1
 40
0.0
176
     1
 90
        0
176
     1
290
     0
176
     1
290
     1
176
     1
290
     1
176
     1
290
     0
176
     1
290
     0
176
     1
290
     0
176
     1
290
     0
176
     1
290
     0
176
     1
290
     0
176
     1
 90
       50
176
     1
 40
0.0
176
     1
 40
1.0
176
     1
 90
        0
176
     1
 62
    18
420
        0
176
     1
 90
       50
176
     1
 90
        3
176
     1
 62
     5
420
      255
176
     1
290
     0
176
     1
 90
       50
176
     1
 90
       50
176
     1
 90
       50
176
     1
290
     0
176
     1
 90
       50
176
     1
 62
   256
176
     0
 40
1.0
176
     0
 90
        2
176
     1
  1
strokes_ogs.tif
176
     1
290
     0
176
     1
 40
1.0
176
     1
 40
1.0
176
     1
  0
VISUALSTYLE
  5
36
102
{ACAD_REACTORS
330
29
102
}
330
29
100
AcDbVisualStyle
  2
Thicken
 70
    13
177
     3
291
     1
 70
    58
 90
        2
176
     1
 90
        2
176
     1
 90
        0
176
     1
 90
        0
176
     1
 40
0.6
176
     1
 40
30.0
176
     1
 62
     7
420
 16777215
176
     1
 90
        1
176
     1
 90
        4
176
     1
 62
     7
176
     1
 62
   257
176
     1
 90
        1
176
     1
 90
        1
176
     1
 40
1.0
176
     1
 90
       12
176
     1
 62
     7
176
     1
 40
1.0
176
     1
 90
        1
176
     1
 90
        6
176
     1
 90
        2
176
     1
 62
     7
176
     1
 90
        5
176
     1
 90
        0
176
     1
 90
        0
176
     1
290
     0
176
     1
 90
        1
176
     1
 40
0.0
176
     1
 90
        0
176
     1
290
     0
176
     1
290
     1
176
     1
290
     1
176
     1
290
     0
176
     1
290
     0
176
     1
290
     0
176
     1
290
     0
176
     1
290
     0
176
     1
290
     0
176
     1
 90
       50
176
     1
 40
0.0
176
     1
 40
1.0
176
     1
 90
        0
176
     1
 62
    18
420
        0
176
     1
 90
       50
176
     1
 90
        3
176
     1
 62
     5
420
      255
176
     1
290
     0
176
     1
 90
       50
176
     1
 90
       50
176
     1
 90
       50
176
     1
290
     0
176
     1
 90
       50
176
     1
 62
   256
176
     0
 40
1.0
176
     0
 90
        2
176
     1
  1
strokes_ogs.tif
176
     1
290
     0
176
     1
 40
1.0
176
     1
 40
1.0
176
     1
  0
VISUALSTYLE
  5
30
102
{ACAD_REACTORS
330
29
102
}
330
29
100
AcDbVisualStyle
  2
Wireframe
 70
     5
177
     3
291
     0
 70
    58
 90
        0
176
     1
 90
        2
176
     1
 90
        0
176
     1
 90
        0
176
     1
 40
0.6
176
     1
 40
30.0
176
     1
 62
     7
420
 16777215
176
     1
 90
        1
176
     1
 90
        4
176
     1
 62
     7
176
     1
 62
   257
176
     1
 90
        1
176
     1
 90
        1
176
     1
 40
1.0
176
     1
 90
        0
176
     1
 62
   257
176
     1
 40
1.0
176
     1
 90
        1
176
     1
 90
        6
176
     1
 90
        2
176
     1
 62
     7
176
     1
 90
        3
176
     1
 90
        0
176
     1
 90
        0
176
     1
290
     0
176
     1
 90
        1
176
     1
 40
0.0
176
     1
 90
        0
176
     1
290
     0
176
     1
290
     1
176
     1
290
     1
176
     1
290
     0
176
     1
290
     0
176
     1
290
     0
176
     1
290
     0
176
     1
290
     0
176
     1
290
     0
176
     1
 90
       50
176
     1
 40
0.0
176
     1
 40
1.0
176
     1
 90
        0
176
     1
 62
    18
420
        0
176
     1
 90
       50
176
     1
 90
        3
176
     1
 62
     5
420
      255
176
     1
290
     0
176
     1
 90
       50
176
     1
 90
       50
176
     1
 90
       50
176
     1
290
     0
176
     1
 90
       50
176
     1
 62
   256
176
     0
 40
1.0
176
     0
 90
        2
176
     1
  1
strokes_ogs.tif
176
     1
290
     0
176
     1
 40
1.0
176
     1
 40
1.0
176
     1
  0
VISUALSTYLE
  5
3C
102
{ACAD_REACTORS
330
29
102
}
330
29
100
AcDbVisualStyle
  2
X-Ray
 70
    25
177
     3
291
     0
 70
    58
 90
        2
176
     1
 90
        2
176
     1
 90
        1
176
     1
 90
        1
176
     1
 40
0.5
176
     1
 40
30.0
176
     1
 62
     7
420
 16777215
176
     1
 90
        1
176
     1
 90
        0
176
     1
 62
     7
176
     1
 62
   257
176
     1
 90
        1
176
     1
 90
        1
176
     1
 40
1.0
176
     1
 90
        8
176
     1
 62
     7
176
     1
 40
1.0
176
     1
 90
        1
176
     1
 90
        6
176
     1
 90
        2
176
     1
 62
     7
176
     1
 90
        3
176
     1
 90
        0
176
     1
 90
        0
176
     1
290
     0
176
     1
 90
       13
176
     1
 40
0.0
176
     1
 90
        0
176
     1
290
     0
176
     1
290
     1
176
     1
290
     1
176
     1
290
     0
176
     1
290
     0
176
     1
290
     0
176
     1
290
     0
176
     1
290
     0
176
     1
290
     0
176
     1
 90
       50
176
     1
 40
0.0
176
     1
 40
1.0
176
     1
 90
        0
176
     1
 62
    18
420
        0
176
     1
 90
       50
176
     1
 90
        3
176
     1
 62
     5
420
      255
176
     1
290
     0
176
     1
 90
       50
176
     1
 90
       50
176
     1
 90
       50
176
     1
290
     0
176
     1
 90
       50
176
     1
 62
   256
176
     0
 40
1.0
176
     0
 90
        2
176
     1
  1
strokes_ogs.tif
176
     1
290
     0
176
     1
 40
1.0
176
     1
 40
1.0
176
     1
  0
DICTIONARYVAR
  5
105
102
{ACAD_REACTORS
330
100
102
}
330
100
100
DictionaryVariables
280
     0
  1
1:1
  0
DICTIONARYVAR
  5
102
102
{ACAD_REACTORS
330
100
102
}
330
100
100
DictionaryVariables
280
     0
  1
STANDARD
  0
DICTIONARYVAR
  5
101
102
{ACAD_REACTORS
330
100
102
}
330
100
100
DictionaryVariables
280
     0
  1
STANDARD
  0
DICTIONARYVAR
  5
103
102
{ACAD_REACTORS
330
100
102
}
330
100
100
DictionaryVariables
280
     0
  1
Imperial24
  0
DICTIONARYVAR
  5
104
102
{ACAD_REACTORS
330
100
102
}
330
100
100
DictionaryVariables
280
     0
  1
Imperial24
  0
DICTIONARY
  5
1A
330
19
100
AcDbDictionary
280
     1
281
     1
  3
BUMPTILE
360
1C
  3
DIFFUSETILE
360
1B
  3
OPACITYTILE
360
1F
  3
REFLECTIONTILE
360
1E
  3
REFRACTIONTILE
360
20
  3
SPECULARTILE
360
1D
  0
DICTIONARY
  5
12
330
11
100
AcDbDictionary
280
     1
281
     1
  3
BUMPTILE
360
14
  3
DIFFUSETILE
360
13
  3
OPACITYTILE
360
17
  3
REFLECTIONTILE
360
16
  3
REFRACTIONTILE
360
18
  3
SPECULARTILE
360
15
  0
DICTIONARY
  5
22
330
21
100
AcDbDictionary
280
     1
281
     1
  3
BUMPTILE
360
24
  3
DIFFUSETILE
360
23
  3
OPACITYTILE
360
27
  3
REFLECTIONTILE
360
26
  3
REFRACTIONTILE
360
28
  3
SPECULARTILE
360
25
  0
DICTIONARY
  5
106
330
65
100
AcDbDictionary
280
     1
281
     1
  3
ACAD_ROUNDTRIP_2008_TABLESTYLE_CELLSTYLEMAP
360
107
  0
XRECORD
  5
1C
102
{ACAD_REACTORS
330
1A
102
}
330
1A
100
AcDbXrecord
280
     1
270
     1
271
     1
  0
XRECORD
  5
1B
102
{ACAD_REACTORS
330
1A
102
}
330
1A
100
AcDbXrecord
280
     1
270
     1
271
     1
  0
XRECORD
  5
1F
102
{ACAD_REACTORS
330
1A
102
}
330
1A
100
AcDbXrecord
280
     1
270
     1
271
     1
  0
XRECORD
  5
1E
102
{ACAD_REACTORS
330
1A
102
}
330
1A
100
AcDbXrecord
280
     1
270
     1
271
     1
  0
XRECORD
  5
20
102
{ACAD_REACTORS
330
1A
102
}
330
1A
100
AcDbXrecord
280
     1
270
     1
271
     1
  0
XRECORD
  5
1D
102
{ACAD_REACTORS
330
1A
102
}
330
1A
100
AcDbXrecord
280
     1
270
     1
271
     1
  0
XRECORD
  5
14
102
{ACAD_REACTORS
330
12
102
}
330
12
100
AcDbXrecord
280
     1
270
     1
271
     1
  0
XRECORD
  5
13
102
{ACAD_REACTORS
330
12
102
}
330
12
100
AcDbXrecord
280
     1
270
     1
271
     1
  0
XRECORD
  5
17
102
{ACAD_REACTORS
330
12
102
}
330
12
100
AcDbXrecord
280
     1
270
     1
271
     1
  0
XRECORD
  5
16
102
{ACAD_REACTORS
330
12
102
}
330
12
100
AcDbXrecord
280
     1
270
     1
271
     1
  0
XRECORD
  5
18
102
{ACAD_REACTORS
330
12
102
}
330
12
100
AcDbXrecord
280
     1
270
     1
271
     1
  0
XRECORD
  5
15
102
{ACAD_REACTORS
330
12
102
}
330
12
100
AcDbXrecord
280
     1
270
     1
271
     1
  0
XRECORD
  5
24
102
{ACAD_REACTORS
330
22
102
}
330
22
100
AcDbXrecord
280
     1
270
     1
271
     1
  0
XRECORD
  5
23
102
{ACAD_REACTORS
330
22
102
}
330
22
100
AcDbXrecord
280
     1
270
     1
271
     1
  0
XRECORD
  5
27
102
{ACAD_REACTORS
330
22
102
}
330
22
100
AcDbXrecord
280
     1
270
     1
271
     1
  0
XRECORD
  5
26
102
{ACAD_REACTORS
330
22
102
}
330
22
100
AcDbXrecord
280
     1
270
     1
271
     1
  0
XRECORD
  5
28
102
{ACAD_REACTORS
330
22
102
}
330
22
100
AcDbXrecord
280
     1
270
     1
271
     1
  0
XRECORD
  5
25
102
{ACAD_REACTORS
330
22
102
}
330
22
100
AcDbXrecord
280
     1
270
     1
271
     1
  0
CELLSTYLEMAP
  5
107
102
{ACAD_REACTORS
330
106
102
}
330
106
100
AcDbCellStyleMap
 90
        3
300
CELLSTYLE
  1
TABLEFORMAT_BEGIN
 90
        5
170
     1
 91
        0
 92
    32768
 62
   257
 93
        1
300
CONTENTFORMAT
  1
CONTENTFORMAT_BEGIN
 90
        0
 91
        0
 92
      512
 93
        0
300

 40
0.0
140
1.0
 94
        5
 62
     0
340
55
144
0.25
309
CONTENTFORMAT_END
171
     0
 94
        0
309
TABLEFORMAT_END
  1
CELLSTYLE_BEGIN
 90
        1
 91
        1
300
_TITLE
309
CELLSTYLE_END
300
CELLSTYLE
  1
TABLEFORMAT_BEGIN
 90
        5
170
     1
 91
        0
 92
        0
 62
   257
 93
        1
300
CONTENTFORMAT
  1
CONTENTFORMAT_BEGIN
 90
        0
 91
        0
 92
      512
 93
        0
300

 40
0.0
140
1.0
 94
        5
 62
     0
340
55
144
0.18
309
CONTENTFORMAT_END
171
     0
 94
        0
309
TABLEFORMAT_END
  1
CELLSTYLE_BEGIN
 90
        2
 91
        1
300
_HEADER
309
CELLSTYLE_END
300
CELLSTYLE
  1
TABLEFORMAT_BEGIN
 90
        5
170
     1
 91
        0
 92
        0
 62
   257
 93
        1
300
CONTENTFORMAT
  1
CONTENTFORMAT_BEGIN
 90
        0
 91
        0
 92
      512
 93
        0
300

 40
0.0
140
1.0
 94
        2
 62
     0
340
55
144
0.18
309
CONTENTFORMAT_END
171
     0
 94
        0
309
TABLEFORMAT_END
  1
CELLSTYLE_BEGIN
 90
        3
 91
        2
300
_DATA
309
CELLSTYLE_END
  0
ENDSEC
  0
EOF
